  0
SECTION
  2
HEADER
  9
$ACADVER
  1
AC1032
  9
$ACADMAINTVER
 90
        4
  9
$DWGCODEPAGE
  3
ANSI_932
  9
$REQUIREDVERSIONS
160
                 0
  9
$LASTSAVEDBY
  1
12
  9
$INSBASE
 10
0.0
 20
0.0
 30
0.0
  9
$EXTMIN
 10
0.0
 20
0.0
 30
0.0
  9
$EXTMAX
 10
900.0
 20
277.0
 30
0.0
  9
$LIMMIN
 10
0.0
 20
0.0
  9
$LIMMAX
 10
400.0
 20
277.0
  9
$ORTHOMODE
 70
     0
  9
$REGENMODE
 70
     1
  9
$FILLMODE
 70
     1
  9
$QTEXTMODE
 70
     0
  9
$MIRRTEXT
 70
     1
  9
$LTSCALE
 40
1.0
  9
$ATTMODE
 70
     1
  9
$TEXTSIZE
 40
0.2
  9
$TRACEWID
 40
0.05
  9
$TEXTSTYLE
  7
Standard
  9
$CLAYER
  8
0
  9
$CELTYPE
  6
ByLayer
  9
$CECOLOR
 62
   256
  9
$CELTSCALE
 40
1.0
  9
$DISPSILH
 70
     0
  9
$DIMSCALE
 40
1.0
  9
$DIMASZ
 40
0.18
  9
$DIMEXO
 40
0.0625
  9
$DIMDLI
 40
0.38
  9
$DIMRND
 40
0.0
  9
$DIMDLE
 40
0.0
  9
$DIMEXE
 40
0.18
  9
$DIMTP
 40
0.0
  9
$DIMTM
 40
0.0
  9
$DIMTXT
 40
0.18
  9
$DIMCEN
 40
0.09
  9
$DIMTSZ
 40
0.0
  9
$DIMTOL
 70
     0
  9
$DIMLIM
 70
     0
  9
$DIMTIH
 70
     1
  9
$DIMTOH
 70
     1
  9
$DIMSE1
 70
     0
  9
$DIMSE2
 70
     0
  9
$DIMTAD
 70
     0
  9
$DIMZIN
 70
     0
  9
$DIMBLK
  1

  9
$DIMASO
 70
     1
  9
$DIMSHO
 70
     1
  9
$DIMPOST
  1

  9
$DIMAPOST
  1

  9
$DIMALT
 70
     0
  9
$DIMALTD
 70
     2
  9
$DIMALTF
 40
25.4
  9
$DIMLFAC
 40
1.0
  9
$DIMTOFL
 70
     0
  9
$DIMTVP
 40
0.0
  9
$DIMTIX
 70
     0
  9
$DIMSOXD
 70
     0
  9
$DIMSAH
 70
     0
  9
$DIMBLK1
  1

  9
$DIMBLK2
  1

  9
$DIMSTYLE
  2
Standard
  9
$DIMCLRD
 70
     0
  9
$DIMCLRE
 70
     0
  9
$DIMCLRT
 70
     0
  9
$DIMTFAC
 40
1.0
  9
$DIMGAP
 40
0.09
  9
$DIMJUST
 70
     0
  9
$DIMSD1
 70
     0
  9
$DIMSD2
 70
     0
  9
$DIMTOLJ
 70
     1
  9
$DIMTZIN
 70
     0
  9
$DIMALTZ
 70
     0
  9
$DIMALTTZ
 70
     0
  9
$DIMUPT
 70
     0
  9
$DIMDEC
 70
     4
  9
$DIMTDEC
 70
     4
  9
$DIMALTU
 70
     2
  9
$DIMALTTD
 70
     2
  9
$DIMTXSTY
  7
Standard
  9
$DIMAUNIT
 70
     0
  9
$DIMADEC
 70
     0
  9
$DIMALTRND
 40
0.0
  9
$DIMAZIN
 70
     0
  9
$DIMDSEP
 70
    46
  9
$DIMATFIT
 70
     3
  9
$DIMFRAC
 70
     0
  9
$DIMLDRBLK
  1

  9
$DIMLUNIT
 70
     2
  9
$DIMLWD
 70
    -2
  9
$DIMLWE
 70
    -2
  9
$DIMTMOVE
 70
     0
  9
$DIMFXL
 40
1.0
  9
$DIMFXLON
 70
     0
  9
$DIMJOGANG
 40
0.7853981633974483
  9
$DIMTFILL
 70
     0
  9
$DIMTFILLCLR
 70
     0
  9
$DIMARCSYM
 70
     0
  9
$DIMLTYPE
  6

  9
$DIMLTEX1
  6

  9
$DIMLTEX2
  6

  9
$DIMTXTDIRECTION
 70
     0
  9
$LUNITS
 70
     2
  9
$LUPREC
 70
     4
  9
$SKETCHINC
 40
0.1
  9
$FILLETRAD
 40
0.5
  9
$AUNITS
 70
     0
  9
$AUPREC
 70
     0
  9
$MENU
  1
.
  9
$ELEVATION
 40
0.0
  9
$PELEVATION
 40
0.0
  9
$THICKNESS
 40
0.0
  9
$LIMCHECK
 70
     0
  9
$CHAMFERA
 40
0.0
  9
$CHAMFERB
 40
0.0
  9
$CHAMFERC
 40
0.0
  9
$CHAMFERD
 40
0.0
  9
$SKPOLY
 70
     0
  9
$TDCREATE
 40
2459645.878971134
  9
$TDUCREATE
 40
2459645.503971134
  9
$TDUPDATE
 40
2459688.381192523
  9
$TDUUPDATE
 40
2459688.006192523
  9
$TDINDWG
 40
0.0014902662
  9
$TDUSRTIMER
 40
0.0014902662
  9
$USRTIMER
 70
     1
  9
$ANGBASE
 50
0.0
  9
$ANGDIR
 70
     0
  9
$PDMODE
 70
     0
  9
$PDSIZE
 40
0.0
  9
$PLINEWID
 40
0.0
  9
$SPLFRAME
 70
     0
  9
$SPLINETYPE
 70
     6
  9
$SPLINESEGS
 70
     8
  9
$HANDSEED
  5
544
  9
$SURFTAB1
 70
     6
  9
$SURFTAB2
 70
     6
  9
$SURFTYPE
 70
     6
  9
$SURFU
 70
     6
  9
$SURFV
 70
     6
  9
$UCSBASE
  2

  9
$UCSNAME
  2

  9
$UCSORG
 10
0.0
 20
0.0
 30
0.0
  9
$UCSXDIR
 10
1.0
 20
0.0
 30
0.0
  9
$UCSYDIR
 10
0.0
 20
1.0
 30
0.0
  9
$UCSORTHOREF
  2

  9
$UCSORTHOVIEW
 70
     0
  9
$UCSORGTOP
 10
0.0
 20
0.0
 30
0.0
  9
$UCSORGBOTTOM
 10
0.0
 20
0.0
 30
0.0
  9
$UCSORGLEFT
 10
0.0
 20
0.0
 30
0.0
  9
$UCSORGRIGHT
 10
0.0
 20
0.0
 30
0.0
  9
$UCSORGFRONT
 10
0.0
 20
0.0
 30
0.0
  9
$UCSORGBACK
 10
0.0
 20
0.0
 30
0.0
  9
$PUCSBASE
  2

  9
$PUCSNAME
  2

  9
$PUCSORG
 10
0.0
 20
0.0
 30
0.0
  9
$PUCSXDIR
 10
1.0
 20
0.0
 30
0.0
  9
$PUCSYDIR
 10
0.0
 20
1.0
 30
0.0
  9
$PUCSORTHOREF
  2

  9
$PUCSORTHOVIEW
 70
     0
  9
$PUCSORGTOP
 10
0.0
 20
0.0
 30
0.0
  9
$PUCSORGBOTTOM
 10
0.0
 20
0.0
 30
0.0
  9
$PUCSORGLEFT
 10
0.0
 20
0.0
 30
0.0
  9
$PUCSORGRIGHT
 10
0.0
 20
0.0
 30
0.0
  9
$PUCSORGFRONT
 10
0.0
 20
0.0
 30
0.0
  9
$PUCSORGBACK
 10
0.0
 20
0.0
 30
0.0
  9
$USERI1
 70
     0
  9
$USERI2
 70
     0
  9
$USERI3
 70
     0
  9
$USERI4
 70
     0
  9
$USERI5
 70
     0
  9
$USERR1
 40
0.0
  9
$USERR2
 40
0.0
  9
$USERR3
 40
0.0
  9
$USERR4
 40
0.0
  9
$USERR5
 40
0.0
  9
$WORLDVIEW
 70
     1
  9
$SHADEDGE
 70
     3
  9
$SHADEDIF
 70
    70
  9
$TILEMODE
 70
     1
  9
$MAXACTVP
 70
    64
  9
$PINSBASE
 10
0.0
 20
0.0
 30
0.0
  9
$PLIMCHECK
 70
     0
  9
$PEXTMIN
 10
1.000000000000000E+20
 20
1.000000000000000E+20
 30
1.000000000000000E+20
  9
$PEXTMAX
 10
-1.000000000000000E+20
 20
-1.000000000000000E+20
 30
-1.000000000000000E+20
  9
$PLIMMIN
 10
0.0
 20
0.0
  9
$PLIMMAX
 10
12.0
 20
9.0
  9
$UNITMODE
 70
     0
  9
$VISRETAIN
 70
     1
  9
$PLINEGEN
 70
     0
  9
$PSLTSCALE
 70
     1
  9
$TREEDEPTH
 70
  3020
  9
$CMLSTYLE
  2
Standard
  9
$CMLJUST
 70
     0
  9
$CMLSCALE
 40
1.0
  9
$PROXYGRAPHICS
 70
     1
  9
$MEASUREMENT
 70
     0
  9
$CELWEIGHT
370
    -1
  9
$ENDCAPS
280
     0
  9
$JOINSTYLE
280
     0
  9
$LWDISPLAY
290
     0
  9
$INSUNITS
 70
     4
  9
$HYPERLINKBASE
  1

  9
$STYLESHEET
  1

  9
$XEDIT
290
     1
  9
$CEPSNTYPE
380
     0
  9
$PSTYLEMODE
290
     1
  9
$FINGERPRINTGUID
  2
{aa7767fb-e0b8-4211-9e88-b7abf8cef1c6}
  9
$VERSIONGUID
  2
{FAEB1C32-E019-11D5-929B-00C0DF256EC4}
  9
$EXTNAMES
290
     1
  9
$PSVPSCALE
 40
0.0
  9
$OLESTARTUP
290
     0
  9
$SORTENTS
280
   127
  9
$INDEXCTL
280
     0
  9
$HIDETEXT
280
     1
  9
$XCLIPFRAME
280
     2
  9
$HALOGAP
280
     0
  9
$OBSCOLOR
 70
   257
  9
$OBSLTYPE
280
     0
  9
$INTERSECTIONDISPLAY
280
     0
  9
$INTERSECTIONCOLOR
 70
   257
  9
$DIMASSOC
280
     2
  9
$PROJECTNAME
  1

  9
$CAMERADISPLAY
290
     0
  9
$LENSLENGTH
 40
50.0
  9
$CAMERAHEIGHT
 40
0.0
  9
$STEPSPERSEC
 40
2.0
  9
$STEPSIZE
 40
6.0
  9
$3DDWFPREC
 40
2.0
  9
$PSOLWIDTH
 40
0.25
  9
$PSOLHEIGHT
 40
4.0
  9
$LOFTANG1
 40
1.570796326794897
  9
$LOFTANG2
 40
1.570796326794897
  9
$LOFTMAG1
 40
0.0
  9
$LOFTMAG2
 40
0.0
  9
$LOFTPARAM
 70
     7
  9
$LOFTNORMALS
280
     1
  9
$LATITUDE
 40
37.795
  9
$LONGITUDE
 40
-122.394
  9
$NORTHDIRECTION
 40
0.0
  9
$TIMEZONE
 70
 -8000
  9
$LIGHTGLYPHDISPLAY
280
     1
  9
$TILEMODELIGHTSYNCH
280
     1
  9
$CMATERIAL
347
44
  9
$SOLIDHIST
280
     1
  9
$SHOWHIST
280
     1
  9
$DWFFRAME
280
     2
  9
$DGNFRAME
280
     0
  9
$REALWORLDSCALE
290
     1
  9
$INTERFERECOLOR
 62
   256
  9
$INTERFEREOBJVS
345
33
  9
$INTERFEREVPVS
346
30
  9
$CSHADOW
280
     0
  9
$SHADOWPLANELOCATION
 40
0.0
  0
ENDSEC
  0
SECTION
  2
CLASSES
  0
CLASS
  1
ACDBDICTIONARYWDFLT
  2
AcDbDictionaryWithDefault
  3
ObjectDBX Classes
 90
        0
 91
        4
280
     0
281
     0
  0
CLASS
  1
VISUALSTYLE
  2
AcDbVisualStyle
  3
ObjectDBX Classes
 90
     4095
 91
        4
280
     0
281
     0
  0
CLASS
  1
MATERIAL
  2
AcDbMaterial
  3
ObjectDBX Classes
 90
     1153
 91
        4
280
     0
281
     0
  0
CLASS
  1
SCALE
  2
AcDbScale
  3
ObjectDBX Classes
 90
     1153
 91
        4
280
     0
281
     0
  0
CLASS
  1
TABLESTYLE
  2
AcDbTableStyle
  3
ObjectDBX Classes
 90
     4095
 91
        4
280
     0
281
     0
  0
CLASS
  1
MLEADERSTYLE
  2
AcDbMLeaderStyle
  3
ACDB_MLEADERSTYLE_CLASS
 90
     4095
 91
        4
280
     0
281
     0
  0
CLASS
  1
SUN
  2
AcDbSun
  3
SCENEOE
 90
     1024
 91
        4
280
     0
281
     0
  0
CLASS
  1
DICTIONARYVAR
  2
AcDbDictionaryVar
  3
ObjectDBX Classes
 90
        0
 91
        4
280
     0
281
     0
  0
CLASS
  1
CELLSTYLEMAP
  2
AcDbCellStyleMap
  3
ObjectDBX Classes
 90
     1152
 91
        4
280
     0
281
     0
  0
CLASS
  1
ACDBPLACEHOLDER
  2
AcDbPlaceHolder
  3
ObjectDBX Classes
 90
        0
 91
        1
280
     0
281
     0
  0
CLASS
  1
LAYOUT
  2
AcDbLayout
  3
ObjectDBX Classes
 90
        0
 91
        1
280
     0
281
     0
  0
ENDSEC
  0
SECTION
  2
TABLES
  0
TABLE
  2
VPORT
  5
8
330
0
100
AcDbSymbolTable
 70
     1
  0
VPORT
  5
29
330
8
100
AcDbSymbolTableRecord
100
AcDbViewportTableRecord
  2
*Active
 70
     0
 10
0.0
 20
0.0
 11
1.0
 21
1.0
 12
450.0
 22
138.5
 13
0.0
 23
0.0
 14
0.5
 24
0.5
 15
0.5
 25
0.5
 16
0.0
 26
0.0
 36
1.0
 17
0.0
 27
0.0
 37
0.0
 40
431.6377864728898
 41
2.094405594405595
 42
50.0
 43
0.0
 44
0.0
 50
0.0
 51
0.0
 71
     0
 72
  1000
 73
     1
 74
     3
 75
     0
 76
     0
 77
     0
 78
     0
281
     0
 65
     1
110
0.0
120
0.0
130
0.0
111
1.0
121
0.0
131
0.0
112
0.0
122
1.0
132
0.0
 79
     0
146
0.0
348
2F
 60
     3
 61
     5
292
     1
282
     1
141
0.0
142
0.0
 63
   250
361
6D
  0
ENDTAB
  0
TABLE
  2
LTYPE
  5
5
330
0
100
AcDbSymbolTable
 70
     2
  0
LTYPE
  5
14
330
5
100
AcDbSymbolTableRecord
100
AcDbLinetypeTableRecord
  2
ByBlock
 70
     0
  3

 72
    65
 73
     0
 40
0.0
  0
LTYPE
  5
15
330
5
100
AcDbSymbolTableRecord
100
AcDbLinetypeTableRecord
  2
ByLayer
 70
     0
  3

 72
    65
 73
     0
 40
0.0
  0
LTYPE
  5
16
330
5
100
AcDbSymbolTableRecord
100
AcDbLinetypeTableRecord
  2
Continuous
 70
     0
  3
Solid line
 72
    65
 73
     0
 40
0.0
  0
LTYPE
  5
6E
330
5
100
AcDbSymbolTableRecord
100
AcDbLinetypeTableRecord
  2
USER_6
 70
     0
  3
UserDefineLineType6
 72
    65
 73
     2
 40
2.0
 49
1.0
 74
     4
 75
     0
340
0
 46
1.0
 50
0.0
 44
0.0
 45
0.0
 49
-1.0
 74
     4
 75
     0
340
0
 46
1.0
 50
0.0
 44
0.0
 45
0.0
  0
ENDTAB
  0
TABLE
  2
LAYER
  5
2
330
0
100
AcDbSymbolTable
 70
    16
  0
LAYER
  5
10
330
2
100
AcDbSymbolTableRecord
100
AcDbLayerTableRecord
  2
0
 70
     0
 62
     7
  6
Continuous
370
    -3
390
F
347
46
348
0
  0
LAYER
  5
6F
330
2
100
AcDbSymbolTableRecord
100
AcDbLayerTableRecord
  2
ＤＬ_目盛_スケールマーク
 70
     0
 62
     5
  6
Continuous
370
    -3
390
F
347
46
348
0
  0
LAYER
  5
70
330
2
100
AcDbSymbolTableRecord
100
AcDbLayerTableRecord
  2
縦線
 70
     0
 62
     8
  6
Continuous
370
    -3
390
F
347
46
348
0
  0
LAYER
  5
71
330
2
100
AcDbSymbolTableRecord
100
AcDbLayerTableRecord
  2
縦断表 枠
 70
     0
 62
     7
  6
Continuous
370
    -3
390
F
347
46
348
0
  0
LAYER
  5
72
330
2
100
AcDbSymbolTableRecord
100
AcDbLayerTableRecord
  2
測点
 70
     0
 62
     5
  6
Continuous
370
    -3
390
F
347
46
348
0
  0
LAYER
  5
73
330
2
100
AcDbSymbolTableRecord
100
AcDbLayerTableRecord
  2
単距離
 70
     0
 62
     5
  6
Continuous
370
    -3
390
F
347
46
348
0
  0
LAYER
  5
74
330
2
100
AcDbSymbolTableRecord
100
AcDbLayerTableRecord
  2
追加距離
 70
     0
 62
     5
  6
Continuous
370
    -3
390
F
347
46
348
0
  0
LAYER
  5
75
330
2
100
AcDbSymbolTableRecord
100
AcDbLayerTableRecord
  2
計画高１
 70
     0
 62
     5
  6
Continuous
370
    -3
390
F
347
46
348
0
  0
LAYER
  5
76
330
2
100
AcDbSymbolTableRecord
100
AcDbLayerTableRecord
  2
切盛１
 70
     0
 62
     5
  6
Continuous
370
    -3
390
F
347
46
348
0
  0
LAYER
  5
77
330
2
100
AcDbSymbolTableRecord
100
AcDbLayerTableRecord
  2
切盛２
 70
     0
 62
     5
  6
Continuous
370
    -3
390
F
347
46
348
0
  0
LAYER
  5
78
330
2
100
AcDbSymbolTableRecord
100
AcDbLayerTableRecord
  2
曲線
 70
     0
 62
     5
  6
Continuous
370
    -3
390
F
347
46
348
0
  0
LAYER
  5
79
330
2
100
AcDbSymbolTableRecord
100
AcDbLayerTableRecord
  2
片勾配
 70
     0
 62
     5
  6
Continuous
370
    -3
390
F
347
46
348
0
  0
LAYER
  5
7A
330
2
100
AcDbSymbolTableRecord
100
AcDbLayerTableRecord
  2
センター成果
 70
     0
 62
     7
  6
Continuous
370
    -3
390
F
347
46
348
0
  0
LAYER
  5
7B
330
2
100
AcDbSymbolTableRecord
100
AcDbLayerTableRecord
  2
センター地盤高・垂直距離
 70
     0
 62
     5
  6
Continuous
370
    -3
390
F
347
46
348
0
  0
LAYER
  5
7C
330
2
100
AcDbSymbolTableRecord
100
AcDbLayerTableRecord
  2
作業ﾚｲﾔ1
 70
     0
 62
     7
  6
Continuous
370
    -3
390
F
347
46
348
0
  0
LAYER
  5
7D
330
2
100
AcDbSymbolTableRecord
100
AcDbLayerTableRecord
  2
作業ﾚｲﾔ7
 70
     0
 62
     4
  6
Continuous
370
    -3
390
F
347
46
348
0
  0
ENDTAB
  0
TABLE
  2
STYLE
  5
3
330
0
100
AcDbSymbolTable
 70
     3
  0
STYLE
  5
11
330
3
100
AcDbSymbolTableRecord
100
AcDbTextStyleTableRecord
  2
Standard
 70
     0
 40
0.0
 41
1.0
 50
0.0
 71
     0
 42
0.2
  3
txt
  4

  0
STYLE
  5
7E
330
3
100
AcDbSymbolTableRecord
100
AcDbTextStyleTableRecord
  2
STANDARD-FC
 70
     0
 40
0.0
 41
1.0
 50
0.0
 71
     0
 42
0.2
  3
txt
  4
bigfont
  0
STYLE
  5
7F
330
3
100
AcDbSymbolTableRecord
100
AcDbTextStyleTableRecord
  2
ＭＳ ゴシック
 70
     0
 40
0.0
 41
1.0
 50
0.0
 71
     0
 42
0.2
  3
msgothic.ttc
  4

1001
ACAD
1000
MS Gothic
1071
    32817
  0
ENDTAB
  0
TABLE
  2
VIEW
  5
6
330
0
100
AcDbSymbolTable
 70
     0
  0
ENDTAB
  0
TABLE
  2
UCS
  5
7
330
0
100
AcDbSymbolTable
 70
     0
  0
ENDTAB
  0
TABLE
  2
APPID
  5
9
330
0
100
AcDbSymbolTable
 70
     2
  0
APPID
  5
12
330
9
100
AcDbSymbolTableRecord
100
AcDbRegAppTableRecord
  2
ACAD
 70
     0
  0
APPID
  5
233
330
9
100
AcDbSymbolTableRecord
100
AcDbRegAppTableRecord
  2
ACAD_MLEADERVER
 70
     0
  0
ENDTAB
  0
TABLE
  2
DIMSTYLE
  5
A
330
0
100
AcDbSymbolTable
 70
     1
100
AcDbDimStyleTable
  0
DIMSTYLE
105
27
330
A
100
AcDbSymbolTableRecord
100
AcDbDimStyleTableRecord
  2
Standard
 70
     0
178
     0
340
11
  0
ENDTAB
  0
TABLE
  2
BLOCK_RECORD
  5
1
330
0
100
AcDbSymbolTable
 70
     1
  0
BLOCK_RECORD
  5
1F
330
1
100
AcDbSymbolTableRecord
100
AcDbBlockTableRecord
  2
*Model_Space
340
22
 70
     0
280
     1
281
     0
  0
BLOCK_RECORD
  5
1B
330
1
100
AcDbSymbolTableRecord
100
AcDbBlockTableRecord
  2
*Paper_Space
340
1E
 70
     0
280
     1
281
     0
  0
BLOCK_RECORD
  5
23
330
1
100
AcDbSymbolTableRecord
100
AcDbBlockTableRecord
  2
*Paper_Space0
340
26
 70
     0
280
     1
281
     0
  0
ENDTAB
  0
ENDSEC
  0
SECTION
  2
BLOCKS
  0
BLOCK
  5
20
330
1F
100
AcDbEntity
  8
0
100
AcDbBlockBegin
  2
*Model_Space
 70
     0
 10
0.0
 20
0.0
 30
0.0
  3
*Model_Space
  1

  0
ENDBLK
  5
21
330
1F
100
AcDbEntity
  8
0
100
AcDbBlockEnd
  0
BLOCK
  5
1C
330
1B
100
AcDbEntity
 67
     1
  8
0
100
AcDbBlockBegin
  2
*Paper_Space
 70
     0
 10
0.0
 20
0.0
 30
0.0
  3
*Paper_Space
  1

  0
ENDBLK
  5
1D
330
1B
100
AcDbEntity
 67
     1
  8
0
100
AcDbBlockEnd
  0
BLOCK
  5
24
330
23
100
AcDbEntity
  8
0
100
AcDbBlockBegin
  2
*Paper_Space0
 70
     0
 10
0.0
 20
0.0
 30
0.0
  3
*Paper_Space0
  1

  0
ENDBLK
  5
25
330
23
100
AcDbEntity
  8
0
100
AcDbBlockEnd
  0
ENDSEC
  0
SECTION
  2
ENTITIES
  0
LINE
  5
80
330
1F
100
AcDbEntity
  8
縦断表 枠
  6
Continuous
 62
     7
370
    18
100
AcDbLine
 10
56.2526525198939
 20
26.3545527591512
 30
0.0
 11
212.8846525198939
 21
26.3545527591512
 31
0.0
  0
LINE
  5
81
330
1F
100
AcDbEntity
  8
縦断表 枠
  6
Continuous
 62
     7
370
    18
100
AcDbLine
 10
212.8846525198939
 20
26.3545527591512
 30
0.0
 11
212.8846525198939
 21
11.35455200915118
 31
0.0
  0
LINE
  5
82
330
1F
100
AcDbEntity
  8
縦断表 枠
  6
Continuous
 62
     7
370
    18
100
AcDbLine
 10
212.8846525198939
 20
11.35455200915118
 30
0.0
 11
56.2526525198939
 21
11.35455200915118
 31
0.0
  0
LINE
  5
83
330
1F
100
AcDbEntity
  8
縦断表 枠
  6
Continuous
 62
     7
370
    18
100
AcDbLine
 10
56.2526525198939
 20
11.35455200915118
 30
0.0
 11
56.2526525198939
 21
26.3545527591512
 31
0.0
  0
LINE
  5
84
330
1F
100
AcDbEntity
  8
縦断表 枠
  6
Continuous
 62
     7
370
    18
100
AcDbLine
 10
56.2526525198939
 20
43.0212202591512
 30
0.0
 11
212.8846525198939
 21
43.0212202591512
 31
0.0
  0
LINE
  5
85
330
1F
100
AcDbEntity
  8
縦断表 枠
  6
Continuous
 62
     7
370
    18
100
AcDbLine
 10
212.8846525198939
 20
43.0212202591512
 30
0.0
 11
212.8846525198939
 21
28.02121950915119
 31
0.0
  0
LINE
  5
86
330
1F
100
AcDbEntity
  8
縦断表 枠
  6
Continuous
 62
     7
370
    18
100
AcDbLine
 10
212.8846525198939
 20
28.02121950915119
 30
0.0
 11
56.2526525198939
 21
28.02121950915119
 31
0.0
  0
LINE
  5
87
330
1F
100
AcDbEntity
  8
縦断表 枠
  6
Continuous
 62
     7
370
    18
100
AcDbLine
 10
56.2526525198939
 20
28.02121950915119
 30
0.0
 11
56.2526525198939
 21
43.0212202591512
 31
0.0
  0
LINE
  5
88
330
1F
100
AcDbEntity
  8
縦断表 枠
  6
Continuous
 62
     7
370
    18
100
AcDbLine
 10
56.2526525198939
 20
59.6878877591512
 30
0.0
 11
212.8846525198939
 21
59.6878877591512
 31
0.0
  0
LINE
  5
89
330
1F
100
AcDbEntity
  8
縦断表 枠
  6
Continuous
 62
     7
370
    18
100
AcDbLine
 10
212.8846525198939
 20
59.6878877591512
 30
0.0
 11
212.8846525198939
 21
44.68788700915119
 31
0.0
  0
LINE
  5
8A
330
1F
100
AcDbEntity
  8
縦断表 枠
  6
Continuous
 62
     7
370
    18
100
AcDbLine
 10
212.8846525198939
 20
44.68788700915119
 30
0.0
 11
56.2526525198939
 21
44.68788700915119
 31
0.0
  0
LINE
  5
8B
330
1F
100
AcDbEntity
  8
縦断表 枠
  6
Continuous
 62
     7
370
    18
100
AcDbLine
 10
56.2526525198939
 20
44.68788700915119
 30
0.0
 11
56.2526525198939
 21
59.6878877591512
 31
0.0
  0
LINE
  5
8C
330
1F
100
AcDbEntity
  8
縦断表 枠
  6
Continuous
 62
     7
370
    18
100
AcDbLine
 10
56.2526525198939
 20
76.35455525915121
 30
0.0
 11
212.8846525198939
 21
76.35455525915121
 31
0.0
  0
LINE
  5
8D
330
1F
100
AcDbEntity
  8
縦断表 枠
  6
Continuous
 62
     7
370
    18
100
AcDbLine
 10
212.8846525198939
 20
76.35455525915121
 30
0.0
 11
212.8846525198939
 21
61.3545545091512
 31
0.0
  0
LINE
  5
8E
330
1F
100
AcDbEntity
  8
縦断表 枠
  6
Continuous
 62
     7
370
    18
100
AcDbLine
 10
212.8846525198939
 20
61.3545545091512
 30
0.0
 11
56.2526525198939
 21
61.3545545091512
 31
0.0
  0
LINE
  5
8F
330
1F
100
AcDbEntity
  8
縦断表 枠
  6
Continuous
 62
     7
370
    18
100
AcDbLine
 10
56.2526525198939
 20
61.3545545091512
 30
0.0
 11
56.2526525198939
 21
76.35455525915121
 31
0.0
  0
LINE
  5
90
330
1F
100
AcDbEntity
  8
縦断表 枠
  6
Continuous
 62
     7
370
    18
100
AcDbLine
 10
56.2526525198939
 20
93.0212227591512
 30
0.0
 11
212.8846525198939
 21
93.0212227591512
 31
0.0
  0
LINE
  5
91
330
1F
100
AcDbEntity
  8
縦断表 枠
  6
Continuous
 62
     7
370
    18
100
AcDbLine
 10
212.8846525198939
 20
93.0212227591512
 30
0.0
 11
212.8846525198939
 21
78.02122200915119
 31
0.0
  0
LINE
  5
92
330
1F
100
AcDbEntity
  8
縦断表 枠
  6
Continuous
 62
     7
370
    18
100
AcDbLine
 10
212.8846525198939
 20
78.02122200915119
 30
0.0
 11
56.2526525198939
 21
78.02122200915119
 31
0.0
  0
LINE
  5
93
330
1F
100
AcDbEntity
  8
縦断表 枠
  6
Continuous
 62
     7
370
    18
100
AcDbLine
 10
56.2526525198939
 20
78.02122200915119
 30
0.0
 11
56.2526525198939
 21
93.0212227591512
 31
0.0
  0
LINE
  5
94
330
1F
100
AcDbEntity
  8
縦断表 枠
  6
Continuous
 62
     7
370
    18
100
AcDbLine
 10
56.2526525198939
 20
109.6878902591512
 30
0.0
 11
212.8846525198939
 21
109.6878902591512
 31
0.0
  0
LINE
  5
95
330
1F
100
AcDbEntity
  8
縦断表 枠
  6
Continuous
 62
     7
370
    18
100
AcDbLine
 10
212.8846525198939
 20
109.6878902591512
 30
0.0
 11
212.8846525198939
 21
94.68788950915119
 31
0.0
  0
LINE
  5
96
330
1F
100
AcDbEntity
  8
縦断表 枠
  6
Continuous
 62
     7
370
    18
100
AcDbLine
 10
212.8846525198939
 20
94.68788950915119
 30
0.0
 11
56.2526525198939
 21
94.68788950915119
 31
0.0
  0
LINE
  5
97
330
1F
100
AcDbEntity
  8
縦断表 枠
  6
Continuous
 62
     7
370
    18
100
AcDbLine
 10
56.2526525198939
 20
94.68788950915119
 30
0.0
 11
56.2526525198939
 21
109.6878902591512
 31
0.0
  0
LINE
  5
98
330
1F
100
AcDbEntity
  8
縦断表 枠
  6
Continuous
 62
     7
370
    18
100
AcDbLine
 10
56.2526525198939
 20
126.3545577591512
 30
0.0
 11
212.8846525198939
 21
126.3545577591512
 31
0.0
  0
LINE
  5
99
330
1F
100
AcDbEntity
  8
縦断表 枠
  6
Continuous
 62
     7
370
    18
100
AcDbLine
 10
212.8846525198939
 20
126.3545577591512
 30
0.0
 11
212.8846525198939
 21
111.3545570091512
 31
0.0
  0
LINE
  5
9A
330
1F
100
AcDbEntity
  8
縦断表 枠
  6
Continuous
 62
     7
370
    18
100
AcDbLine
 10
212.8846525198939
 20
111.3545570091512
 30
0.0
 11
56.2526525198939
 21
111.3545570091512
 31
0.0
  0
LINE
  5
9B
330
1F
100
AcDbEntity
  8
縦断表 枠
  6
Continuous
 62
     7
370
    18
100
AcDbLine
 10
56.2526525198939
 20
111.3545570091512
 30
0.0
 11
56.2526525198939
 21
126.3545577591512
 31
0.0
  0
LINE
  5
9C
330
1F
100
AcDbEntity
  8
縦断表 枠
  6
Continuous
 62
     7
370
    18
100
AcDbLine
 10
56.2526525198939
 20
143.0212252591512
 30
0.0
 11
212.8846525198939
 21
143.0212252591512
 31
0.0
  0
LINE
  5
9D
330
1F
100
AcDbEntity
  8
縦断表 枠
  6
Continuous
 62
     7
370
    18
100
AcDbLine
 10
212.8846525198939
 20
143.0212252591512
 30
0.0
 11
212.8846525198939
 21
128.0212245091512
 31
0.0
  0
LINE
  5
9E
330
1F
100
AcDbEntity
  8
縦断表 枠
  6
Continuous
 62
     7
370
    18
100
AcDbLine
 10
212.8846525198939
 20
128.0212245091512
 30
0.0
 11
56.2526525198939
 21
128.0212245091512
 31
0.0
  0
LINE
  5
9F
330
1F
100
AcDbEntity
  8
縦断表 枠
  6
Continuous
 62
     7
370
    18
100
AcDbLine
 10
56.2526525198939
 20
128.0212245091512
 30
0.0
 11
56.2526525198939
 21
143.0212252591512
 31
0.0
  0
LINE
  5
A0
330
1F
100
AcDbEntity
  8
縦断表 枠
  6
Continuous
 62
     7
370
    18
100
AcDbLine
 10
56.2526525198939
 20
159.6878927591512
 30
0.0
 11
212.8846525198939
 21
159.6878927591512
 31
0.0
  0
LINE
  5
A1
330
1F
100
AcDbEntity
  8
縦断表 枠
  6
Continuous
 62
     7
370
    18
100
AcDbLine
 10
212.8846525198939
 20
159.6878927591512
 30
0.0
 11
212.8846525198939
 21
144.6878920091512
 31
0.0
  0
LINE
  5
A2
330
1F
100
AcDbEntity
  8
縦断表 枠
  6
Continuous
 62
     7
370
    18
100
AcDbLine
 10
212.8846525198939
 20
144.6878920091512
 30
0.0
 11
56.2526525198939
 21
144.6878920091512
 31
0.0
  0
LINE
  5
A3
330
1F
100
AcDbEntity
  8
縦断表 枠
  6
Continuous
 62
     7
370
    18
100
AcDbLine
 10
56.2526525198939
 20
144.6878920091512
 30
0.0
 11
56.2526525198939
 21
159.6878927591512
 31
0.0
  0
LINE
  5
A4
330
1F
100
AcDbEntity
  8
縦断表 枠
  6
Continuous
 62
     7
370
    18
100
AcDbLine
 10
23.2526525198939
 20
26.3545527591512
 30
0.0
 11
53.2526525198939
 21
26.3545527591512
 31
0.0
  0
LINE
  5
A5
330
1F
100
AcDbEntity
  8
縦断表 枠
  6
Continuous
 62
     7
370
    18
100
AcDbLine
 10
53.2526525198939
 20
26.3545527591512
 30
0.0
 11
53.2526525198939
 21
11.35455200915118
 31
0.0
  0
LINE
  5
A6
330
1F
100
AcDbEntity
  8
縦断表 枠
  6
Continuous
 62
     7
370
    18
100
AcDbLine
 10
53.2526525198939
 20
11.35455200915118
 30
0.0
 11
23.2526525198939
 21
11.35455200915118
 31
0.0
  0
LINE
  5
A7
330
1F
100
AcDbEntity
  8
縦断表 枠
  6
Continuous
 62
     7
370
    18
100
AcDbLine
 10
23.2526525198939
 20
11.35455200915118
 30
0.0
 11
23.2526525198939
 21
26.3545527591512
 31
0.0
  0
LINE
  5
A8
330
1F
100
AcDbEntity
  8
縦断表 枠
  6
Continuous
 62
     7
370
    18
100
AcDbLine
 10
23.2526525198939
 20
43.0212202591512
 30
0.0
 11
53.2526525198939
 21
43.0212202591512
 31
0.0
  0
LINE
  5
A9
330
1F
100
AcDbEntity
  8
縦断表 枠
  6
Continuous
 62
     7
370
    18
100
AcDbLine
 10
53.2526525198939
 20
43.0212202591512
 30
0.0
 11
53.2526525198939
 21
28.02121950915119
 31
0.0
  0
LINE
  5
AA
330
1F
100
AcDbEntity
  8
縦断表 枠
  6
Continuous
 62
     7
370
    18
100
AcDbLine
 10
53.2526525198939
 20
28.02121950915119
 30
0.0
 11
23.2526525198939
 21
28.02121950915119
 31
0.0
  0
LINE
  5
AB
330
1F
100
AcDbEntity
  8
縦断表 枠
  6
Continuous
 62
     7
370
    18
100
AcDbLine
 10
23.2526525198939
 20
28.02121950915119
 30
0.0
 11
23.2526525198939
 21
43.0212202591512
 31
0.0
  0
TEXT
  5
AC
330
1F
100
AcDbEntity
  8
測点
  6
Continuous
 62
     7
370
    13
100
AcDbText
 10
33.26994109123076
 20
33.73551107189067
 30
0.0
 40
3.831417624521073
  1
測点
  7
ＭＳ ゴシック
 72
     1
 11
38.2526525198939
 21
35.6512198841512
 31
0.0
100
AcDbText
 73
     2
  0
LINE
  5
AD
330
1F
100
AcDbEntity
  8
縦断表 枠
  6
Continuous
 62
     7
370
    18
100
AcDbLine
 10
23.2526525198939
 20
59.6878877591512
 30
0.0
 11
53.2526525198939
 21
59.6878877591512
 31
0.0
  0
LINE
  5
AE
330
1F
100
AcDbEntity
  8
縦断表 枠
  6
Continuous
 62
     7
370
    18
100
AcDbLine
 10
53.2526525198939
 20
59.6878877591512
 30
0.0
 11
53.2526525198939
 21
44.68788700915119
 31
0.0
  0
LINE
  5
AF
330
1F
100
AcDbEntity
  8
縦断表 枠
  6
Continuous
 62
     7
370
    18
100
AcDbLine
 10
53.2526525198939
 20
44.68788700915119
 30
0.0
 11
23.2526525198939
 21
44.68788700915119
 31
0.0
  0
LINE
  5
B0
330
1F
100
AcDbEntity
  8
縦断表 枠
  6
Continuous
 62
     7
370
    18
100
AcDbLine
 10
23.2526525198939
 20
44.68788700915119
 30
0.0
 11
23.2526525198939
 21
59.6878877591512
 31
0.0
  0
TEXT
  5
B1
330
1F
100
AcDbEntity
  8
単距離
  6
Continuous
 62
     7
370
    13
100
AcDbText
 10
30.77858537689918
 20
50.40217857189067
 30
0.0
 40
3.831417624521073
  1
単距離
  7
ＭＳ ゴシック
 72
     1
 11
38.2526525198939
 21
52.31788738415121
 31
0.0
100
AcDbText
 73
     2
  0
LINE
  5
B2
330
1F
100
AcDbEntity
  8
縦断表 枠
  6
Continuous
 62
     7
370
    18
100
AcDbLine
 10
23.2526525198939
 20
76.35455525915121
 30
0.0
 11
53.2526525198939
 21
76.35455525915121
 31
0.0
  0
LINE
  5
B3
330
1F
100
AcDbEntity
  8
縦断表 枠
  6
Continuous
 62
     7
370
    18
100
AcDbLine
 10
53.2526525198939
 20
76.35455525915121
 30
0.0
 11
53.2526525198939
 21
61.3545545091512
 31
0.0
  0
LINE
  5
B4
330
1F
100
AcDbEntity
  8
縦断表 枠
  6
Continuous
 62
     7
370
    18
100
AcDbLine
 10
53.2526525198939
 20
61.3545545091512
 30
0.0
 11
23.2526525198939
 21
61.3545545091512
 31
0.0
  0
LINE
  5
B5
330
1F
100
AcDbEntity
  8
縦断表 枠
  6
Continuous
 62
     7
370
    18
100
AcDbLine
 10
23.2526525198939
 20
61.3545545091512
 30
0.0
 11
23.2526525198939
 21
76.35455525915121
 31
0.0
  0
TEXT
  5
B6
330
1F
100
AcDbEntity
  8
追加距離
  6
Continuous
 62
     7
370
    13
100
AcDbText
 10
28.28722966256761
 20
67.06884607189068
 30
0.0
 40
3.831417624521073
  1
追加距離
  7
ＭＳ ゴシック
 72
     1
 11
38.2526525198939
 21
68.98455488415121
 31
0.0
100
AcDbText
 73
     2
  0
LINE
  5
B7
330
1F
100
AcDbEntity
  8
縦断表 枠
  6
Continuous
 62
     7
370
    18
100
AcDbLine
 10
23.2526525198939
 20
93.0212227591512
 30
0.0
 11
53.2526525198939
 21
93.0212227591512
 31
0.0
  0
LINE
  5
B8
330
1F
100
AcDbEntity
  8
縦断表 枠
  6
Continuous
 62
     7
370
    18
100
AcDbLine
 10
53.2526525198939
 20
93.0212227591512
 30
0.0
 11
53.2526525198939
 21
78.02122200915119
 31
0.0
  0
LINE
  5
B9
330
1F
100
AcDbEntity
  8
縦断表 枠
  6
Continuous
 62
     7
370
    18
100
AcDbLine
 10
53.2526525198939
 20
78.02122200915119
 30
0.0
 11
23.2526525198939
 21
78.02122200915119
 31
0.0
  0
LINE
  5
BA
330
1F
100
AcDbEntity
  8
縦断表 枠
  6
Continuous
 62
     7
370
    18
100
AcDbLine
 10
23.2526525198939
 20
78.02122200915119
 30
0.0
 11
23.2526525198939
 21
93.0212227591512
 31
0.0
  0
LINE
  5
BB
330
1F
100
AcDbEntity
  8
縦断表 枠
  6
Continuous
 62
     7
370
    18
100
AcDbLine
 10
23.2526525198939
 20
109.6878902591512
 30
0.0
 11
53.2526525198939
 21
109.6878902591512
 31
0.0
  0
LINE
  5
BC
330
1F
100
AcDbEntity
  8
縦断表 枠
  6
Continuous
 62
     7
370
    18
100
AcDbLine
 10
53.2526525198939
 20
109.6878902591512
 30
0.0
 11
53.2526525198939
 21
94.68788950915119
 31
0.0
  0
LINE
  5
BD
330
1F
100
AcDbEntity
  8
縦断表 枠
  6
Continuous
 62
     7
370
    18
100
AcDbLine
 10
53.2526525198939
 20
94.68788950915119
 30
0.0
 11
23.2526525198939
 21
94.68788950915119
 31
0.0
  0
LINE
  5
BE
330
1F
100
AcDbEntity
  8
縦断表 枠
  6
Continuous
 62
     7
370
    18
100
AcDbLine
 10
23.2526525198939
 20
94.68788950915119
 30
0.0
 11
23.2526525198939
 21
109.6878902591512
 31
0.0
  0
TEXT
  5
BF
330
1F
100
AcDbEntity
  8
計画高１
  6
Continuous
 62
     7
370
    13
100
AcDbText
 10
30.77858537689918
 20
100.4021810718907
 30
0.0
 40
3.831417624521073
  1
計画高
  7
ＭＳ ゴシック
 72
     1
 11
38.2526525198939
 21
102.3178898841512
 31
0.0
100
AcDbText
 73
     2
  0
LINE
  5
C0
330
1F
100
AcDbEntity
  8
縦断表 枠
  6
Continuous
 62
     7
370
    18
100
AcDbLine
 10
23.2526525198939
 20
126.3545577591512
 30
0.0
 11
53.2526525198939
 21
126.3545577591512
 31
0.0
  0
LINE
  5
C1
330
1F
100
AcDbEntity
  8
縦断表 枠
  6
Continuous
 62
     7
370
    18
100
AcDbLine
 10
53.2526525198939
 20
126.3545577591512
 30
0.0
 11
53.2526525198939
 21
111.3545570091512
 31
0.0
  0
LINE
  5
C2
330
1F
100
AcDbEntity
  8
縦断表 枠
  6
Continuous
 62
     7
370
    18
100
AcDbLine
 10
53.2526525198939
 20
111.3545570091512
 30
0.0
 11
23.2526525198939
 21
111.3545570091512
 31
0.0
  0
LINE
  5
C3
330
1F
100
AcDbEntity
  8
縦断表 枠
  6
Continuous
 62
     7
370
    18
100
AcDbLine
 10
23.2526525198939
 20
111.3545570091512
 30
0.0
 11
23.2526525198939
 21
126.3545577591512
 31
0.0
  0
LINE
  5
C4
330
1F
100
AcDbEntity
  8
縦断表 枠
  6
Continuous
 62
     7
370
    18
100
AcDbLine
 10
23.2526525198939
 20
143.0212252591512
 30
0.0
 11
53.2526525198939
 21
143.0212252591512
 31
0.0
  0
LINE
  5
C5
330
1F
100
AcDbEntity
  8
縦断表 枠
  6
Continuous
 62
     7
370
    18
100
AcDbLine
 10
53.2526525198939
 20
143.0212252591512
 30
0.0
 11
53.2526525198939
 21
128.0212245091512
 31
0.0
  0
LINE
  5
C6
330
1F
100
AcDbEntity
  8
縦断表 枠
  6
Continuous
 62
     7
370
    18
100
AcDbLine
 10
53.2526525198939
 20
128.0212245091512
 30
0.0
 11
23.2526525198939
 21
128.0212245091512
 31
0.0
  0
LINE
  5
C7
330
1F
100
AcDbEntity
  8
縦断表 枠
  6
Continuous
 62
     7
370
    18
100
AcDbLine
 10
23.2526525198939
 20
128.0212245091512
 30
0.0
 11
23.2526525198939
 21
143.0212252591512
 31
0.0
  0
LINE
  5
C8
330
1F
100
AcDbEntity
  8
縦断表 枠
  6
Continuous
 62
     7
370
    18
100
AcDbLine
 10
23.2526525198939
 20
159.6878927591512
 30
0.0
 11
53.2526525198939
 21
159.6878927591512
 31
0.0
  0
LINE
  5
C9
330
1F
100
AcDbEntity
  8
縦断表 枠
  6
Continuous
 62
     7
370
    18
100
AcDbLine
 10
53.2526525198939
 20
159.6878927591512
 30
0.0
 11
53.2526525198939
 21
144.6878920091512
 31
0.0
  0
LINE
  5
CA
330
1F
100
AcDbEntity
  8
縦断表 枠
  6
Continuous
 62
     7
370
    18
100
AcDbLine
 10
53.2526525198939
 20
144.6878920091512
 30
0.0
 11
23.2526525198939
 21
144.6878920091512
 31
0.0
  0
LINE
  5
CB
330
1F
100
AcDbEntity
  8
縦断表 枠
  6
Continuous
 62
     7
370
    18
100
AcDbLine
 10
23.2526525198939
 20
144.6878920091512
 30
0.0
 11
23.2526525198939
 21
159.6878927591512
 31
0.0
  0
TEXT
  5
CC
330
1F
100
AcDbEntity
  8
片勾配
  6
Continuous
 62
     7
370
    13
100
AcDbText
 10
33.26994109123076
 20
150.4021835718906
 30
0.0
 40
3.831417624521073
  1
勾配
  7
ＭＳ ゴシック
 72
     1
 11
38.2526525198939
 21
152.3178923841512
 31
0.0
100
AcDbText
 73
     2
  0
TEXT
  5
CD
330
1F
100
AcDbEntity
  8
測点
  6
Continuous
 62
     7
370
    13
100
AcDbText
 10
68.77750692602417
 20
29.68788625915118
 30
0.0
 40
1.915708812260537
  1
ANO.0
 50
90.00000000000001
  7
ＭＳ ゴシック
 11
67.8196525198939
 21
29.68788625915118
 31
0.0
100
AcDbText
 73
     2
  0
TEXT
  5
CE
330
1F
100
AcDbEntity
  8
測点
  6
Continuous
 62
     7
370
    13
100
AcDbText
 10
88.77750692602417
 20
29.68788625915118
 30
0.0
 40
1.915708812260537
  1
ANO.1
 50
90.00000000000001
  7
ＭＳ ゴシック
 11
87.8196525198939
 21
29.68788625915118
 31
0.0
100
AcDbText
 73
     2
  0
TEXT
  5
CF
330
1F
100
AcDbEntity
  8
測点
  6
Continuous
 62
     7
370
    13
100
AcDbText
 10
108.7775069260242
 20
29.68788625915118
 30
0.0
 40
1.915708812260537
  1
ANO.2
 50
90.00000000000001
  7
ＭＳ ゴシック
 11
107.8196525198939
 21
29.68788625915118
 31
0.0
100
AcDbText
 73
     2
  0
TEXT
  5
D0
330
1F
100
AcDbEntity
  8
測点
  6
Continuous
 62
     7
370
    13
100
AcDbText
 10
128.7775069260242
 20
29.68788625915118
 30
0.0
 40
1.915708812260537
  1
ANO.3
 50
90.00000000000001
  7
ＭＳ ゴシック
 11
127.8196525198939
 21
29.68788625915118
 31
0.0
100
AcDbText
 73
     2
  0
TEXT
  5
D1
330
1F
100
AcDbEntity
  8
測点
  6
Continuous
 62
     7
370
    13
100
AcDbText
 10
148.7775069260242
 20
29.68788625915118
 30
0.0
 40
1.915708812260537
  1
ANO.4
 50
90.00000000000001
  7
ＭＳ ゴシック
 11
147.8196525198939
 21
29.68788625915118
 31
0.0
100
AcDbText
 73
     2
  0
TEXT
  5
D2
330
1F
100
AcDbEntity
  8
測点
  6
Continuous
 62
     7
370
    13
100
AcDbText
 10
168.7775069260242
 20
29.68788625915118
 30
0.0
 40
1.915708812260537
  1
ANO.5
 50
90.00000000000001
  7
ＭＳ ゴシック
 11
167.8196525198939
 21
29.68788625915118
 31
0.0
100
AcDbText
 73
     2
  0
TEXT
  5
D3
330
1F
100
AcDbEntity
  8
測点
  6
Continuous
 62
     7
370
    13
100
AcDbText
 10
189.3995069260242
 20
29.68788625915118
 30
0.0
 40
1.915708812260537
  1
ANO.6
 50
90.00000000000001
  7
ＭＳ ゴシック
 11
188.4416525198939
 21
29.68788625915118
 31
0.0
100
AcDbText
 73
     2
  0
TEXT
  5
D4
330
1F
100
AcDbEntity
  8
単距離
  6
Continuous
 62
     7
370
    13
100
AcDbText
 10
68.77750692602417
 20
51.79283172332226
 30
0.0
 40
1.915708812260537
  1
0.000
 50
90.00000000000001
  7
ＭＳ ゴシック
 72
     2
 11
67.8196525198939
 21
58.02122100915119
 31
0.0
100
AcDbText
 73
     2
  0
TEXT
  5
D5
330
1F
100
AcDbEntity
  8
単距離
  6
Continuous
 62
     7
370
    13
100
AcDbText
 10
88.77750692602417
 20
50.54715386615648
 30
0.0
 40
1.915708812260537
  1
10.000
 50
90.00000000000001
  7
ＭＳ ゴシック
 72
     2
 11
87.8196525198939
 21
58.02122100915119
 31
0.0
100
AcDbText
 73
     2
  0
TEXT
  5
D6
330
1F
100
AcDbEntity
  8
単距離
  6
Continuous
 62
     7
370
    13
100
AcDbText
 10
108.7775069260242
 20
50.54715386615648
 30
0.0
 40
1.915708812260537
  1
10.000
 50
90.00000000000001
  7
ＭＳ ゴシック
 72
     2
 11
107.8196525198939
 21
58.02122100915119
 31
0.0
100
AcDbText
 73
     2
  0
TEXT
  5
D7
330
1F
100
AcDbEntity
  8
単距離
  6
Continuous
 62
     7
370
    13
100
AcDbText
 10
128.7775069260242
 20
50.54715386615648
 30
0.0
 40
1.915708812260537
  1
10.000
 50
90.00000000000001
  7
ＭＳ ゴシック
 72
     2
 11
127.8196525198939
 21
58.02122100915119
 31
0.0
100
AcDbText
 73
     2
  0
TEXT
  5
D8
330
1F
100
AcDbEntity
  8
単距離
  6
Continuous
 62
     7
370
    13
100
AcDbText
 10
148.7775069260242
 20
50.54715386615648
 30
0.0
 40
1.915708812260537
  1
10.000
 50
90.00000000000001
  7
ＭＳ ゴシック
 72
     2
 11
147.8196525198939
 21
58.02122100915119
 31
0.0
100
AcDbText
 73
     2
  0
TEXT
  5
D9
330
1F
100
AcDbEntity
  8
単距離
  6
Continuous
 62
     7
370
    13
100
AcDbText
 10
168.7775069260242
 20
50.54715386615648
 30
0.0
 40
1.915708812260537
  1
10.000
 50
90.0
  7
ＭＳ ゴシック
 72
     2
 11
167.8196525198939
 21
58.02122100915119
 31
0.0
100
AcDbText
 73
     2
  0
TEXT
  5
DA
330
1F
100
AcDbEntity
  8
単距離
  6
Continuous
 62
     7
370
    13
100
AcDbText
 10
188.7775069260242
 20
50.54715386615648
 30
0.0
 40
1.915708812260537
  1
10.000
 50
90.0
  7
ＭＳ ゴシック
 72
     2
 11
187.8196525198939
 21
58.02122100915119
 31
0.0
100
AcDbText
 73
     2
  0
TEXT
  5
DB
330
1F
100
AcDbEntity
  8
追加距離
  6
Continuous
 62
     7
370
    13
100
AcDbText
 10
68.77750692602417
 20
68.45949922332227
 30
0.0
 40
1.915708812260537
  1
0.000
 50
90.00000000000001
  7
ＭＳ ゴシック
 72
     2
 11
67.8196525198939
 21
74.6878885091512
 31
0.0
100
AcDbText
 73
     2
  0
TEXT
  5
DC
330
1F
100
AcDbEntity
  8
追加距離
  6
Continuous
 62
     7
370
    13
100
AcDbText
 10
88.77750692602417
 20
67.21382136615648
 30
0.0
 40
1.915708812260537
  1
10.000
 50
90.00000000000001
  7
ＭＳ ゴシック
 72
     2
 11
87.8196525198939
 21
74.6878885091512
 31
0.0
100
AcDbText
 73
     2
  0
TEXT
  5
DD
330
1F
100
AcDbEntity
  8
追加距離
  6
Continuous
 62
     7
370
    13
100
AcDbText
 10
108.7775069260242
 20
67.21382136615648
 30
0.0
 40
1.915708812260537
  1
20.000
 50
90.00000000000001
  7
ＭＳ ゴシック
 72
     2
 11
107.8196525198939
 21
74.6878885091512
 31
0.0
100
AcDbText
 73
     2
  0
TEXT
  5
DE
330
1F
100
AcDbEntity
  8
追加距離
  6
Continuous
 62
     7
370
    13
100
AcDbText
 10
128.7775069260242
 20
67.21382136615648
 30
0.0
 40
1.915708812260537
  1
30.000
 50
90.00000000000001
  7
ＭＳ ゴシック
 72
     2
 11
127.8196525198939
 21
74.6878885091512
 31
0.0
100
AcDbText
 73
     2
  0
TEXT
  5
DF
330
1F
100
AcDbEntity
  8
追加距離
  6
Continuous
 62
     7
370
    13
100
AcDbText
 10
148.7775069260242
 20
67.21382136615648
 30
0.0
 40
1.915708812260537
  1
40.000
 50
90.00000000000001
  7
ＭＳ ゴシック
 72
     2
 11
147.8196525198939
 21
74.6878885091512
 31
0.0
100
AcDbText
 73
     2
  0
TEXT
  5
E0
330
1F
100
AcDbEntity
  8
追加距離
  6
Continuous
 62
     7
370
    13
100
AcDbText
 10
168.7775069260242
 20
67.21382136615648
 30
0.0
 40
1.915708812260537
  1
50.000
 50
90.00000000000001
  7
ＭＳ ゴシック
 72
     2
 11
167.8196525198939
 21
74.6878885091512
 31
0.0
100
AcDbText
 73
     2
  0
TEXT
  5
E1
330
1F
100
AcDbEntity
  8
追加距離
  6
Continuous
 62
     7
370
    13
100
AcDbText
 10
188.7775069260242
 20
67.21382136615648
 30
0.0
 40
1.915708812260537
  1
60.000
 50
90.00000000000001
  7
ＭＳ ゴシック
 72
     2
 11
187.8196525198939
 21
74.6878885091512
 31
0.0
100
AcDbText
 73
     2
  0
ELLIPSE
  5
E2
330
1F
100
AcDbEntity
  8
作業ﾚｲﾔ1
  6
Continuous
 62
     7
370
    13
100
AcDbEllipse
 10
75.2846525198939
 20
208.5878927591577
 30
0.0
 11
0.0
 21
0.5999999999999943
 31
0.0
210
0.0
220
0.0
230
1.0
 40
0.2
 41
0.0
 42
6.283185307179586
  0
LWPOLYLINE
  5
E3
330
1F
100
AcDbEntity
  8
センター成果
  6
Continuous
 62
     7
370
    18
100
AcDbPolyline
 90
        3
 70
   128
 43
0.0
 10
155.0526525198939
 20
201.3678927591512
 10
167.8846525198939
 20
203.4478927591512
 10
173.5066525198939
 20
202.3478927591511
  0
TEXT
  5
E4
330
1F
100
AcDbEntity
  8
曲線
  6
Continuous
 62
     7
370
    13
100
AcDbText
 10
33.26994109123076
 20
17.06884357189065
 30
0.0
 40
3.831417624521073
  1
曲線
  7
ＭＳ ゴシック
 72
     1
 11
38.2526525198939
 21
18.98455238415119
 31
0.0
100
AcDbText
 73
     2
  0
LINE
  5
E5
330
1F
100
AcDbEntity
  8
曲線
  6
Continuous
 62
     7
370
    18
100
AcDbLine
 10
66.2526525198939
 20
18.85455238415118
 30
0.0
 11
192.8846525198939
 21
18.85455238415118
 31
0.0
  0
LINE
  5
E6
330
1F
100
AcDbEntity
  8
ＤＬ_目盛_スケールマーク
  6
Continuous
 62
     7
370
    18
100
AcDbLine
 10
38.2526525198939
 20
174.6878927591512
 30
0.0
 11
34.2526525198939
 21
174.6878927591512
 31
0.0
  0
TEXT
  5
E7
330
1F
100
AcDbEntity
  8
ＤＬ_目盛_スケールマーク
  6
Continuous
 62
     7
370
    13
100
AcDbText
 10
32.51561894839654
 20
172.0026896107804
 30
0.0
 40
1.915708812260537
  1
1：500
  7
ＭＳ ゴシック
 72
     1
 11
36.2526525198939
 21
173.9183984230409
 31
0.0
100
AcDbText
 73
     3
  0
LINE
  5
E8
330
1F
100
AcDbEntity
  8
ＤＬ_目盛_スケールマーク
  6
Continuous
 62
     7
370
    18
100
AcDbLine
 10
38.2526525198939
 20
174.6878927591512
 30
0.0
 11
38.2526525198939
 21
194.6878927591512
 31
0.0
  0
TEXT
  5
E9
330
1F
100
AcDbEntity
  8
ＤＬ_目盛_スケールマーク
  6
Continuous
 62
     7
370
    13
100
AcDbText
 10
40.96080394848102
 20
180.9378927591512
 30
0.0
 40
1.915708812260537
  1
1：100
 50
90.00000000000001
  7
ＭＳ ゴシック
 11
41.31088134819557
 21
180.9378927591512
 31
0.0
100
AcDbText
 73
     1
  0
LINE
  5
EA
330
1F
100
AcDbEntity
  8
ＤＬ_目盛_スケールマーク
  6
Continuous
 62
     7
370
    18
100
AcDbLine
 10
34.2526525198939
 20
174.6878927591512
 30
0.0
 11
38.2526525198939
 21
194.6878927591512
 31
0.0
  0
LINE
  5
EB
330
1F
100
AcDbEntity
  8
ＤＬ_目盛_スケールマーク
  6
Continuous
 62
     7
370
    18
100
AcDbLine
 10
23.2526525198939
 20
164.6878927591512
 30
0.0
 11
212.8846525198939
 21
164.6878927591512
 31
0.0
  0
TEXT
  5
EC
330
1F
100
AcDbEntity
  8
ＤＬ_目盛_スケールマーク
  6
Continuous
 62
     7
370
    13
100
AcDbText
 10
46.2526525198939
 20
165.0404701588657
 30
0.0
 40
1.915708812260537
  1
DL=0.000
  7
ＭＳ ゴシック
 11
46.2526525198939
 21
164.6903927591512
 31
0.0
100
AcDbText
 73
     1
  0
LINE
  5
ED
330
1F
100
AcDbEntity
  8
ＤＬ_目盛_スケールマーク
  6
Continuous
 62
     7
370
    18
100
AcDbLine
 10
56.2526525198939
 20
164.6878927591512
 30
0.0
 11
56.2526525198939
 21
264.6878927591512
 31
0.0
  0
LINE
  5
EE
330
1F
100
AcDbEntity
  8
ＤＬ_目盛_スケールマーク
  6
Continuous
 62
     7
370
    18
100
AcDbLine
 10
56.2526525198939
 20
214.6878927591512
 30
0.0
 11
46.2526525198939
 21
214.6878927591512
 31
0.0
  0
TEXT
  5
EF
330
1F
100
AcDbEntity
  8
ＤＬ_目盛_スケールマーク
  6
Continuous
 62
     7
370
    13
100
AcDbText
 10
50.0026525198939
 20
215.0404701588657
 30
0.0
 40
1.915708812260537
  1
5.000
  7
ＭＳ ゴシック
 11
50.0026525198939
 21
214.6903927591512
 31
0.0
100
AcDbText
 73
     1
  0
LINE
  5
F0
330
1F
100
AcDbEntity
  8
ＤＬ_目盛_スケールマーク
  6
Continuous
 62
     7
370
    18
100
AcDbLine
 10
56.2526525198939
 20
264.6878927591512
 30
0.0
 11
46.2526525198939
 21
264.6878927591512
 31
0.0
  0
TEXT
  5
F1
330
1F
100
AcDbEntity
  8
ＤＬ_目盛_スケールマーク
  6
Continuous
 62
     7
370
    13
100
AcDbText
 10
48.7526525198939
 20
265.0404701588657
 30
0.0
 40
1.915708812260537
  1
10.000
  7
ＭＳ ゴシック
 11
48.7526525198939
 21
264.6903927591512
 31
0.0
100
AcDbText
 73
     1
  0
LINE
  5
F2
330
1F
100
AcDbEntity
  8
ＤＬ_目盛_スケールマーク
  6
Continuous
 62
     7
370
    18
100
AcDbLine
 10
56.2526525198939
 20
174.6878927591512
 30
0.0
 11
51.2526525198939
 21
174.6878927591512
 31
0.0
  0
LINE
  5
F3
330
1F
100
AcDbEntity
  8
ＤＬ_目盛_スケールマーク
  6
Continuous
 62
     7
370
    18
100
AcDbLine
 10
56.2526525198939
 20
184.6878927591512
 30
0.0
 11
51.2526525198939
 21
184.6878927591512
 31
0.0
  0
LINE
  5
F4
330
1F
100
AcDbEntity
  8
ＤＬ_目盛_スケールマーク
  6
Continuous
 62
     7
370
    18
100
AcDbLine
 10
56.2526525198939
 20
194.6878927591512
 30
0.0
 11
51.2526525198939
 21
194.6878927591512
 31
0.0
  0
LINE
  5
F5
330
1F
100
AcDbEntity
  8
ＤＬ_目盛_スケールマーク
  6
Continuous
 62
     7
370
    18
100
AcDbLine
 10
56.2526525198939
 20
204.6878927591512
 30
0.0
 11
51.2526525198939
 21
204.6878927591512
 31
0.0
  0
LINE
  5
F6
330
1F
100
AcDbEntity
  8
ＤＬ_目盛_スケールマーク
  6
Continuous
 62
     7
370
    18
100
AcDbLine
 10
56.2526525198939
 20
224.6878927591512
 30
0.0
 11
51.2526525198939
 21
224.6878927591512
 31
0.0
  0
LINE
  5
F7
330
1F
100
AcDbEntity
  8
ＤＬ_目盛_スケールマーク
  6
Continuous
 62
     7
370
    18
100
AcDbLine
 10
56.2526525198939
 20
234.6878927591512
 30
0.0
 11
51.2526525198939
 21
234.6878927591512
 31
0.0
  0
LINE
  5
F8
330
1F
100
AcDbEntity
  8
ＤＬ_目盛_スケールマーク
  6
Continuous
 62
     7
370
    18
100
AcDbLine
 10
56.2526525198939
 20
244.6878927591512
 30
0.0
 11
51.2526525198939
 21
244.6878927591512
 31
0.0
  0
LINE
  5
F9
330
1F
100
AcDbEntity
  8
ＤＬ_目盛_スケールマーク
  6
Continuous
 62
     7
370
    18
100
AcDbLine
 10
56.2526525198939
 20
254.6878927591512
 30
0.0
 11
51.2526525198939
 21
254.6878927591512
 31
0.0
  0
TEXT
  5
FA
330
1F
100
AcDbEntity
  8
センター地盤高・垂直距離
  6
Continuous
 62
     7
370
    13
100
AcDbText
 10
30.77858537689918
 20
83.73551357189066
 30
0.0
 40
3.831417624521073
  1
地盤高
  7
ＭＳ ゴシック
 72
     1
 11
38.2526525198939
 21
85.6512223841512
 31
0.0
100
AcDbText
 73
     2
  0
TEXT
  5
FB
330
1F
100
AcDbEntity
  8
切盛１
  6
Continuous
 62
     7
370
    13
100
AcDbText
 10
33.26994109123076
 20
117.0688485718907
 30
0.0
 40
3.831417624521073
  1
切土
  7
ＭＳ ゴシック
 72
     1
 11
38.2526525198939
 21
118.9845573841512
 31
0.0
100
AcDbText
 73
     2
  0
TEXT
  5
FC
330
1F
100
AcDbEntity
  8
切盛２
  6
Continuous
 62
     7
370
    13
100
AcDbText
 10
33.26994109123076
 20
133.7355160718907
 30
0.0
 40
3.831417624521073
  1
盛土
  7
ＭＳ ゴシック
 72
     1
 11
38.2526525198939
 21
135.6512248841512
 31
0.0
100
AcDbText
 73
     2
  0
LINE
  5
FD
330
1F
100
AcDbEntity
  8
縦線
  6
Continuous
 62
     7
370
    13
100
AcDbLine
 10
67.8846525198939
 20
191.9478927591512
 30
0.0
 11
67.8846525198939
 21
164.6878927591512
 31
0.0
  0
LINE
  5
FE
330
1F
100
AcDbEntity
  8
縦線
  6
Continuous
 62
     7
370
    18
100
AcDbLine
 10
67.8846525198939
 20
26.3545527591512
 30
0.0
 11
67.8846525198939
 21
28.02121950915119
 31
0.0
  0
LINE
  5
FF
330
1F
100
AcDbEntity
  8
縦線
  6
Continuous
 62
     7
370
    18
100
AcDbLine
 10
67.8846525198939
 20
43.0212202591512
 30
0.0
 11
67.8846525198939
 21
44.68788700915119
 31
0.0
  0
LINE
  5
100
330
1F
100
AcDbEntity
  8
縦線
  6
Continuous
 62
     7
370
    18
100
AcDbLine
 10
67.8846525198939
 20
59.6878877591512
 30
0.0
 11
67.8846525198939
 21
61.3545545091512
 31
0.0
  0
LINE
  5
101
330
1F
100
AcDbEntity
  8
縦線
  6
Continuous
 62
     7
370
    18
100
AcDbLine
 10
67.8846525198939
 20
76.35455525915121
 30
0.0
 11
67.8846525198939
 21
78.02122200915119
 31
0.0
  0
LINE
  5
102
330
1F
100
AcDbEntity
  8
縦線
  6
Continuous
 62
     7
370
    18
100
AcDbLine
 10
67.8846525198939
 20
93.0212227591512
 30
0.0
 11
67.8846525198939
 21
94.68788950915119
 31
0.0
  0
LINE
  5
103
330
1F
100
AcDbEntity
  8
縦線
  6
Continuous
 62
     7
370
    18
100
AcDbLine
 10
67.8846525198939
 20
109.6878902591512
 30
0.0
 11
67.8846525198939
 21
111.3545570091512
 31
0.0
  0
LINE
  5
104
330
1F
100
AcDbEntity
  8
縦線
  6
Continuous
 62
     7
370
    18
100
AcDbLine
 10
67.8846525198939
 20
126.3545577591512
 30
0.0
 11
67.8846525198939
 21
128.0212245091512
 31
0.0
  0
LINE
  5
105
330
1F
100
AcDbEntity
  8
縦線
  6
Continuous
 62
     7
370
    18
100
AcDbLine
 10
67.8846525198939
 20
143.0212252591512
 30
0.0
 11
67.8846525198939
 21
144.6878920091512
 31
0.0
  0
LINE
  5
106
330
1F
100
AcDbEntity
  8
縦線
  6
Continuous
 62
     7
370
    13
100
AcDbLine
 10
87.8846525198939
 20
201.5378927591512
 30
0.0
 11
87.8846525198939
 21
164.6878927591512
 31
0.0
  0
LINE
  5
107
330
1F
100
AcDbEntity
  8
縦線
  6
Continuous
 62
     7
370
    18
100
AcDbLine
 10
87.8846525198939
 20
26.3545527591512
 30
0.0
 11
87.8846525198939
 21
28.02121950915119
 31
0.0
  0
LINE
  5
108
330
1F
100
AcDbEntity
  8
縦線
  6
Continuous
 62
     7
370
    18
100
AcDbLine
 10
87.8846525198939
 20
43.0212202591512
 30
0.0
 11
87.8846525198939
 21
44.68788700915119
 31
0.0
  0
LINE
  5
109
330
1F
100
AcDbEntity
  8
縦線
  6
Continuous
 62
     7
370
    18
100
AcDbLine
 10
87.8846525198939
 20
59.6878877591512
 30
0.0
 11
87.8846525198939
 21
61.3545545091512
 31
0.0
  0
LINE
  5
10A
330
1F
100
AcDbEntity
  8
縦線
  6
Continuous
 62
     7
370
    18
100
AcDbLine
 10
87.8846525198939
 20
76.35455525915121
 30
0.0
 11
87.8846525198939
 21
78.02122200915119
 31
0.0
  0
LINE
  5
10B
330
1F
100
AcDbEntity
  8
縦線
  6
Continuous
 62
     7
370
    18
100
AcDbLine
 10
87.8846525198939
 20
93.0212227591512
 30
0.0
 11
87.8846525198939
 21
94.68788950915119
 31
0.0
  0
LINE
  5
10C
330
1F
100
AcDbEntity
  8
縦線
  6
Continuous
 62
     7
370
    18
100
AcDbLine
 10
87.8846525198939
 20
109.6878902591512
 30
0.0
 11
87.8846525198939
 21
111.3545570091512
 31
0.0
  0
LINE
  5
10D
330
1F
100
AcDbEntity
  8
縦線
  6
Continuous
 62
     7
370
    18
100
AcDbLine
 10
87.8846525198939
 20
126.3545577591512
 30
0.0
 11
87.8846525198939
 21
128.0212245091512
 31
0.0
  0
LINE
  5
10E
330
1F
100
AcDbEntity
  8
縦線
  6
Continuous
 62
     7
370
    18
100
AcDbLine
 10
87.8846525198939
 20
143.0212252591512
 30
0.0
 11
87.8846525198939
 21
144.6878920091512
 31
0.0
  0
LINE
  5
10F
330
1F
100
AcDbEntity
  8
縦線
  6
Continuous
 62
     7
370
    13
100
AcDbLine
 10
107.8846525198939
 20
200.9478927591512
 30
0.0
 11
107.8846525198939
 21
164.6878927591512
 31
0.0
  0
LINE
  5
110
330
1F
100
AcDbEntity
  8
縦線
  6
Continuous
 62
     7
370
    18
100
AcDbLine
 10
107.8846525198939
 20
26.3545527591512
 30
0.0
 11
107.8846525198939
 21
28.02121950915119
 31
0.0
  0
LINE
  5
111
330
1F
100
AcDbEntity
  8
縦線
  6
Continuous
 62
     7
370
    18
100
AcDbLine
 10
107.8846525198939
 20
43.0212202591512
 30
0.0
 11
107.8846525198939
 21
44.68788700915119
 31
0.0
  0
LINE
  5
112
330
1F
100
AcDbEntity
  8
縦線
  6
Continuous
 62
     7
370
    18
100
AcDbLine
 10
107.8846525198939
 20
59.6878877591512
 30
0.0
 11
107.8846525198939
 21
61.3545545091512
 31
0.0
  0
LINE
  5
113
330
1F
100
AcDbEntity
  8
縦線
  6
Continuous
 62
     7
370
    18
100
AcDbLine
 10
107.8846525198939
 20
76.35455525915121
 30
0.0
 11
107.8846525198939
 21
78.02122200915119
 31
0.0
  0
LINE
  5
114
330
1F
100
AcDbEntity
  8
縦線
  6
Continuous
 62
     7
370
    18
100
AcDbLine
 10
107.8846525198939
 20
93.0212227591512
 30
0.0
 11
107.8846525198939
 21
94.68788950915119
 31
0.0
  0
LINE
  5
115
330
1F
100
AcDbEntity
  8
縦線
  6
Continuous
 62
     7
370
    18
100
AcDbLine
 10
107.8846525198939
 20
109.6878902591512
 30
0.0
 11
107.8846525198939
 21
111.3545570091512
 31
0.0
  0
LINE
  5
116
330
1F
100
AcDbEntity
  8
縦線
  6
Continuous
 62
     7
370
    18
100
AcDbLine
 10
107.8846525198939
 20
126.3545577591512
 30
0.0
 11
107.8846525198939
 21
128.0212245091512
 31
0.0
  0
LINE
  5
117
330
1F
100
AcDbEntity
  8
縦線
  6
Continuous
 62
     7
370
    18
100
AcDbLine
 10
107.8846525198939
 20
143.0212252591512
 30
0.0
 11
107.8846525198939
 21
144.6878920091512
 31
0.0
  0
LINE
  5
118
330
1F
100
AcDbEntity
  8
縦線
  6
Continuous
 62
     7
370
    13
100
AcDbLine
 10
127.8846525198939
 20
201.1678927591512
 30
0.0
 11
127.8846525198939
 21
164.6878927591512
 31
0.0
  0
LINE
  5
119
330
1F
100
AcDbEntity
  8
縦線
  6
Continuous
 62
     7
370
    18
100
AcDbLine
 10
127.8846525198939
 20
26.3545527591512
 30
0.0
 11
127.8846525198939
 21
28.02121950915119
 31
0.0
  0
LINE
  5
11A
330
1F
100
AcDbEntity
  8
縦線
  6
Continuous
 62
     7
370
    18
100
AcDbLine
 10
127.8846525198939
 20
43.0212202591512
 30
0.0
 11
127.8846525198939
 21
44.68788700915119
 31
0.0
  0
LINE
  5
11B
330
1F
100
AcDbEntity
  8
縦線
  6
Continuous
 62
     7
370
    18
100
AcDbLine
 10
127.8846525198939
 20
59.6878877591512
 30
0.0
 11
127.8846525198939
 21
61.3545545091512
 31
0.0
  0
LINE
  5
11C
330
1F
100
AcDbEntity
  8
縦線
  6
Continuous
 62
     7
370
    18
100
AcDbLine
 10
127.8846525198939
 20
76.35455525915121
 30
0.0
 11
127.8846525198939
 21
78.02122200915119
 31
0.0
  0
LINE
  5
11D
330
1F
100
AcDbEntity
  8
縦線
  6
Continuous
 62
     7
370
    18
100
AcDbLine
 10
127.8846525198939
 20
93.0212227591512
 30
0.0
 11
127.8846525198939
 21
94.68788950915119
 31
0.0
  0
LINE
  5
11E
330
1F
100
AcDbEntity
  8
縦線
  6
Continuous
 62
     7
370
    18
100
AcDbLine
 10
127.8846525198939
 20
109.6878902591512
 30
0.0
 11
127.8846525198939
 21
111.3545570091512
 31
0.0
  0
LINE
  5
11F
330
1F
100
AcDbEntity
  8
縦線
  6
Continuous
 62
     7
370
    18
100
AcDbLine
 10
127.8846525198939
 20
126.3545577591512
 30
0.0
 11
127.8846525198939
 21
128.0212245091512
 31
0.0
  0
LINE
  5
120
330
1F
100
AcDbEntity
  8
縦線
  6
Continuous
 62
     7
370
    18
100
AcDbLine
 10
127.8846525198939
 20
143.0212252591512
 30
0.0
 11
127.8846525198939
 21
144.6878920091512
 31
0.0
  0
LINE
  5
121
330
1F
100
AcDbEntity
  8
縦線
  6
Continuous
 62
     7
370
    13
100
AcDbLine
 10
147.8846525198939
 20
201.4578927591512
 30
0.0
 11
147.8846525198939
 21
164.6878927591512
 31
0.0
  0
LINE
  5
122
330
1F
100
AcDbEntity
  8
縦線
  6
Continuous
 62
     7
370
    18
100
AcDbLine
 10
147.8846525198939
 20
26.3545527591512
 30
0.0
 11
147.8846525198939
 21
28.02121950915119
 31
0.0
  0
LINE
  5
123
330
1F
100
AcDbEntity
  8
縦線
  6
Continuous
 62
     7
370
    18
100
AcDbLine
 10
147.8846525198939
 20
43.0212202591512
 30
0.0
 11
147.8846525198939
 21
44.68788700915119
 31
0.0
  0
LINE
  5
124
330
1F
100
AcDbEntity
  8
縦線
  6
Continuous
 62
     7
370
    18
100
AcDbLine
 10
147.8846525198939
 20
59.6878877591512
 30
0.0
 11
147.8846525198939
 21
61.3545545091512
 31
0.0
  0
LINE
  5
125
330
1F
100
AcDbEntity
  8
縦線
  6
Continuous
 62
     7
370
    18
100
AcDbLine
 10
147.8846525198939
 20
76.35455525915121
 30
0.0
 11
147.8846525198939
 21
78.02122200915119
 31
0.0
  0
LINE
  5
126
330
1F
100
AcDbEntity
  8
縦線
  6
Continuous
 62
     7
370
    18
100
AcDbLine
 10
147.8846525198939
 20
93.0212227591512
 30
0.0
 11
147.8846525198939
 21
94.68788950915119
 31
0.0
  0
LINE
  5
127
330
1F
100
AcDbEntity
  8
縦線
  6
Continuous
 62
     7
370
    18
100
AcDbLine
 10
147.8846525198939
 20
109.6878902591512
 30
0.0
 11
147.8846525198939
 21
111.3545570091512
 31
0.0
  0
LINE
  5
128
330
1F
100
AcDbEntity
  8
縦線
  6
Continuous
 62
     7
370
    18
100
AcDbLine
 10
147.8846525198939
 20
126.3545577591512
 30
0.0
 11
147.8846525198939
 21
128.0212245091512
 31
0.0
  0
LINE
  5
129
330
1F
100
AcDbEntity
  8
縦線
  6
Continuous
 62
     7
370
    18
100
AcDbLine
 10
147.8846525198939
 20
143.0212252591512
 30
0.0
 11
147.8846525198939
 21
144.6878920091512
 31
0.0
  0
LINE
  5
12A
330
1F
100
AcDbEntity
  8
縦線
  6
Continuous
 62
     7
370
    13
100
AcDbLine
 10
167.8846525198939
 20
203.4478927591512
 30
0.0
 11
167.8846525198939
 21
164.6878927591512
 31
0.0
  0
LINE
  5
12B
330
1F
100
AcDbEntity
  8
縦線
  6
Continuous
 62
     7
370
    18
100
AcDbLine
 10
167.8846525198939
 20
26.3545527591512
 30
0.0
 11
167.8846525198939
 21
28.02121950915119
 31
0.0
  0
LINE
  5
12C
330
1F
100
AcDbEntity
  8
縦線
  6
Continuous
 62
     7
370
    18
100
AcDbLine
 10
167.8846525198939
 20
43.0212202591512
 30
0.0
 11
167.8846525198939
 21
44.68788700915119
 31
0.0
  0
LINE
  5
12D
330
1F
100
AcDbEntity
  8
縦線
  6
Continuous
 62
     7
370
    18
100
AcDbLine
 10
167.8846525198939
 20
59.6878877591512
 30
0.0
 11
167.8846525198939
 21
61.3545545091512
 31
0.0
  0
LINE
  5
12E
330
1F
100
AcDbEntity
  8
縦線
  6
Continuous
 62
     7
370
    18
100
AcDbLine
 10
167.8846525198939
 20
76.35455525915121
 30
0.0
 11
167.8846525198939
 21
78.02122200915119
 31
0.0
  0
LINE
  5
12F
330
1F
100
AcDbEntity
  8
縦線
  6
Continuous
 62
     7
370
    18
100
AcDbLine
 10
167.8846525198939
 20
93.0212227591512
 30
0.0
 11
167.8846525198939
 21
94.68788950915119
 31
0.0
  0
LINE
  5
130
330
1F
100
AcDbEntity
  8
縦線
  6
Continuous
 62
     7
370
    18
100
AcDbLine
 10
167.8846525198939
 20
109.6878902591512
 30
0.0
 11
167.8846525198939
 21
111.3545570091512
 31
0.0
  0
LINE
  5
131
330
1F
100
AcDbEntity
  8
縦線
  6
Continuous
 62
     7
370
    18
100
AcDbLine
 10
167.8846525198939
 20
126.3545577591512
 30
0.0
 11
167.8846525198939
 21
128.0212245091512
 31
0.0
  0
LINE
  5
132
330
1F
100
AcDbEntity
  8
縦線
  6
Continuous
 62
     7
370
    18
100
AcDbLine
 10
167.8846525198939
 20
143.0212252591512
 30
0.0
 11
167.8846525198939
 21
144.6878920091512
 31
0.0
  0
LINE
  5
133
330
1F
100
AcDbEntity
  8
縦線
  6
Continuous
 62
     7
370
    13
100
AcDbLine
 10
187.8846525198939
 20
190.1578927591512
 30
0.0
 11
187.8846525198939
 21
164.6878927591512
 31
0.0
  0
LINE
  5
134
330
1F
100
AcDbEntity
  8
縦線
  6
Continuous
 62
     7
370
    18
100
AcDbLine
 10
187.8846525198939
 20
26.3545527591512
 30
0.0
 11
187.8846525198939
 21
28.02121950915119
 31
0.0
  0
LINE
  5
135
330
1F
100
AcDbEntity
  8
縦線
  6
Continuous
 62
     7
370
    18
100
AcDbLine
 10
187.8846525198939
 20
43.0212202591512
 30
0.0
 11
187.8846525198939
 21
44.68788700915119
 31
0.0
  0
LINE
  5
136
330
1F
100
AcDbEntity
  8
縦線
  6
Continuous
 62
     7
370
    18
100
AcDbLine
 10
187.8846525198939
 20
59.6878877591512
 30
0.0
 11
187.8846525198939
 21
61.3545545091512
 31
0.0
  0
LINE
  5
137
330
1F
100
AcDbEntity
  8
縦線
  6
Continuous
 62
     7
370
    18
100
AcDbLine
 10
187.8846525198939
 20
76.35455525915121
 30
0.0
 11
187.8846525198939
 21
78.02122200915119
 31
0.0
  0
LINE
  5
138
330
1F
100
AcDbEntity
  8
縦線
  6
Continuous
 62
     7
370
    18
100
AcDbLine
 10
187.8846525198939
 20
93.0212227591512
 30
0.0
 11
187.8846525198939
 21
94.68788950915119
 31
0.0
  0
LINE
  5
139
330
1F
100
AcDbEntity
  8
縦線
  6
Continuous
 62
     7
370
    18
100
AcDbLine
 10
187.8846525198939
 20
109.6878902591512
 30
0.0
 11
187.8846525198939
 21
111.3545570091512
 31
0.0
  0
LINE
  5
13A
330
1F
100
AcDbEntity
  8
縦線
  6
Continuous
 62
     7
370
    18
100
AcDbLine
 10
187.8846525198939
 20
126.3545577591512
 30
0.0
 11
187.8846525198939
 21
128.0212245091512
 31
0.0
  0
LINE
  5
13B
330
1F
100
AcDbEntity
  8
縦線
  6
Continuous
 62
     7
370
    18
100
AcDbLine
 10
187.8846525198939
 20
143.0212252591512
 30
0.0
 11
187.8846525198939
 21
144.6878920091512
 31
0.0
  0
LINE
  5
13C
330
1F
100
AcDbEntity
  8
センター成果
  6
Continuous
 62
     7
370
    18
100
AcDbLine
 10
66.2526525198939
 20
192.0978927591512
 30
0.0
 11
67.5846525198939
 21
191.9478927591512
 31
0.0
  0
LINE
  5
13D
330
1F
100
AcDbEntity
  8
センター成果
  6
Continuous
 62
     7
370
    18
100
AcDbLine
 10
67.5846525198939
 20
191.9478927591512
 30
0.0
 11
67.8846525198939
 21
191.9478927591512
 31
0.0
  0
LINE
  5
13E
330
1F
100
AcDbEntity
  8
センター成果
  6
Continuous
 62
     7
370
    18
100
AcDbLine
 10
67.8846525198939
 20
191.9478927591512
 30
0.0
 11
67.8846525198939
 21
193.7878927591512
 31
0.0
  0
LINE
  5
13F
330
1F
100
AcDbEntity
  8
センター成果
  6
Continuous
 62
     7
370
    18
100
AcDbLine
 10
67.8846525198939
 20
193.7878927591512
 30
0.0
 11
68.2646525198939
 21
193.7878927591512
 31
0.0
  0
LINE
  5
140
330
1F
100
AcDbEntity
  8
センター成果
  6
Continuous
 62
     7
370
    18
100
AcDbLine
 10
68.2646525198939
 20
193.7878927591512
 30
0.0
 11
68.2646525198939
 21
191.8878927591512
 31
0.0
  0
LINE
  5
141
330
1F
100
AcDbEntity
  8
センター成果
  6
Continuous
 62
     7
370
    18
100
AcDbLine
 10
68.2646525198939
 20
191.8878927591512
 30
0.0
 11
72.5186525198939
 21
191.0978927591512
 31
0.0
  0
LINE
  5
142
330
1F
100
AcDbEntity
  8
センター成果
  6
Continuous
 62
     7
370
    18
100
AcDbLine
 10
72.5186525198939
 20
191.0978927591512
 30
0.0
 11
72.5186525198939
 21
205.5078927591512
 31
0.0
  0
ARC
  5
143
330
1F
100
AcDbEntity
  8
センター成果
  6
Continuous
 62
     7
370
    18
100
AcDbCircle
 10
72.5186525198939
 20
194.3028927591512
 30
0.0
 40
0.5
100
AcDbArc
 50
270.0
 51
90.0
  0
HATCH
  5
144
330
1F
100
AcDbEntity
  8
センター成果
  6
Continuous
 62
     7
370
    18
100
AcDbHatch
 10
0.0
 20
0.0
 30
0.0
210
0.0
220
0.0
230
1.0
  2
SOLID
 70
     1
 71
     0
 91
        1
 92
        3
 72
     1
 73
     1
 93
        2
 10
72.5186525198939
 20
193.8028927591512
 42
1.0
 10
72.5186525198939
 20
194.8028927591512
 42
0.0
 97
        0
 75
     0
 76
     1
 98
        0
450
        0
451
        0
460
0.0
461
0.0
452
        1
462
0.0
453
        2
463
0.0
 63
     5
421
      255
463
1.0
 63
   254
421
 13750783
470

  0
ARC
  5
145
330
1F
100
AcDbEntity
  8
センター成果
  6
Continuous
 62
     7
370
    18
100
AcDbCircle
 10
72.5186525198939
 20
198.3028927591512
 30
0.0
 40
0.5
100
AcDbArc
 50
270.0
 51
90.0
  0
HATCH
  5
146
330
1F
100
AcDbEntity
  8
センター成果
  6
Continuous
 62
     7
370
    18
100
AcDbHatch
 10
0.0
 20
0.0
 30
0.0
210
0.0
220
0.0
230
1.0
  2
SOLID
 70
     1
 71
     0
 91
        1
 92
        3
 72
     1
 73
     1
 93
        2
 10
72.5186525198939
 20
197.8028927591512
 42
1.0
 10
72.5186525198939
 20
198.8028927591512
 42
0.0
 97
        0
 75
     0
 76
     1
 98
        0
450
        0
451
        0
460
0.0
461
0.0
452
        1
462
0.0
453
        2
463
0.0
 63
     5
421
      255
463
1.0
 63
   254
421
 13750783
470

  0
ARC
  5
147
330
1F
100
AcDbEntity
  8
センター成果
  6
Continuous
 62
     7
370
    18
100
AcDbCircle
 10
72.5186525198939
 20
202.3028927591512
 30
0.0
 40
0.5
100
AcDbArc
 50
270.0
 51
90.0
  0
HATCH
  5
148
330
1F
100
AcDbEntity
  8
センター成果
  6
Continuous
 62
     7
370
    18
100
AcDbHatch
 10
0.0
 20
0.0
 30
0.0
210
0.0
220
0.0
230
1.0
  2
SOLID
 70
     1
 71
     0
 91
        1
 92
        3
 72
     1
 73
     1
 93
        2
 10
72.5186525198939
 20
201.8028927591512
 42
1.0
 10
72.5186525198939
 20
202.8028927591512
 42
0.0
 97
        0
 75
     0
 76
     1
 98
        0
450
        0
451
        0
460
0.0
461
0.0
452
        1
462
0.0
453
        2
463
0.0
 63
     5
421
      255
463
1.0
 63
   254
421
 13750783
470

  0
LINE
  5
149
330
1F
100
AcDbEntity
  8
センター成果
  6
Continuous
 62
     7
370
    18
100
AcDbLine
 10
72.5186525198939
 20
205.5078927591512
 30
0.0
 11
72.9586525198939
 21
205.5078927591512
 31
0.0
  0
LINE
  5
14A
330
1F
100
AcDbEntity
  8
センター成果
  6
Continuous
 62
     7
370
    18
100
AcDbLine
 10
72.9586525198939
 20
205.5078927591512
 30
0.0
 11
72.9586525198939
 21
203.1578927591512
 31
0.0
  0
LINE
  5
14B
330
1F
100
AcDbEntity
  8
センター成果
  6
Continuous
 62
     7
370
    18
100
AcDbLine
 10
72.9586525198939
 20
203.1578927591512
 30
0.0
 11
76.9146525198939
 21
203.0178927591512
 31
0.0
  0
LINE
  5
14C
330
1F
100
AcDbEntity
  8
センター成果
  6
Continuous
 62
     7
370
    18
100
AcDbLine
 10
76.9146525198939
 20
203.0178927591512
 30
0.0
 11
76.9146525198939
 21
192.0178927591512
 31
0.0
  0
LINE
  5
14D
330
1F
100
AcDbEntity
  8
センター成果
  6
Continuous
 62
     7
370
    18
100
AcDbLine
 10
76.9146525198939
 20
192.0178927591512
 30
0.0
 11
79.4146525198939
 21
192.0178927591512
 31
0.0
  0
LINE
  5
14E
330
1F
100
AcDbEntity
  8
センター成果
  6
Continuous
 62
     7
370
    18
100
AcDbLine
 10
79.4146525198939
 20
192.0178927591512
 30
0.0
 11
79.4146525198939
 21
202.8278927591512
 31
0.0
  0
LINE
  5
14F
330
1F
100
AcDbEntity
  8
センター成果
  6
Continuous
 62
     7
370
    18
100
AcDbLine
 10
79.4146525198939
 20
202.8278927591512
 30
0.0
 11
81.2986525198939
 21
202.5378927591512
 31
0.0
  0
LINE
  5
150
330
1F
100
AcDbEntity
  8
センター成果
  6
Continuous
 62
     7
370
    18
100
AcDbLine
 10
81.2986525198939
 20
202.5378927591512
 30
0.0
 11
81.2986525198939
 21
204.3378927591511
 31
0.0
  0
LINE
  5
151
330
1F
100
AcDbEntity
  8
センター成果
  6
Continuous
 62
     7
370
    18
100
AcDbLine
 10
81.2986525198939
 20
204.3378927591511
 30
0.0
 11
81.7386525198939
 21
204.3378927591511
 31
0.0
  0
LINE
  5
152
330
1F
100
AcDbEntity
  8
センター成果
  6
Continuous
 62
     7
370
    18
100
AcDbLine
 10
81.7386525198939
 20
204.3378927591511
 30
0.0
 11
81.7386525198939
 21
202.0378927591512
 31
0.0
  0
LINE
  5
153
330
1F
100
AcDbEntity
  8
センター成果
  6
Continuous
 62
     7
370
    18
100
AcDbLine
 10
81.7386525198939
 20
202.0378927591512
 30
0.0
 11
87.8846525198939
 21
201.5378927591512
 31
0.0
  0
LINE
  5
154
330
1F
100
AcDbEntity
  8
センター成果
  6
Continuous
 62
     7
370
    18
100
AcDbLine
 10
87.8846525198939
 20
201.5378927591512
 30
0.0
 11
107.8846525198939
 21
200.9478927591512
 31
0.0
  0
LINE
  5
155
330
1F
100
AcDbEntity
  8
センター成果
  6
Continuous
 62
     7
370
    18
100
AcDbLine
 10
107.8846525198939
 20
200.9478927591512
 30
0.0
 11
127.8846525198939
 21
201.1678927591512
 31
0.0
  0
LINE
  5
156
330
1F
100
AcDbEntity
  8
センター成果
  6
Continuous
 62
     7
370
    18
100
AcDbLine
 10
127.8846525198939
 20
201.1678927591512
 30
0.0
 11
147.8846525198939
 21
201.4578927591512
 31
0.0
  0
LINE
  5
157
330
1F
100
AcDbEntity
  8
センター成果
  6
Continuous
 62
     7
370
    18
100
AcDbLine
 10
147.8846525198939
 20
201.4578927591512
 30
0.0
 11
155.0526525198939
 21
201.3678927591512
 31
0.0
  0
LINE
  5
158
330
1F
100
AcDbEntity
  8
センター成果
  6
USER_6
 62
     7
370
    18
100
AcDbLine
 10
155.0526525198939
 20
201.3678927591512
 30
0.0
 11
155.0526525198939
 21
230.7378927591512
 31
0.0
  0
LINE
  5
159
330
1F
100
AcDbEntity
  8
センター成果
  6
USER_6
 62
     7
370
    18
100
AcDbLine
 10
155.0526525198939
 20
230.7378927591512
 30
0.0
 11
154.1726525198939
 21
230.5578927591512
 31
0.0
  0
LINE
  5
15A
330
1F
100
AcDbEntity
  8
センター成果
  6
USER_6
 62
     7
370
    18
100
AcDbLine
 10
154.1726525198939
 20
230.5578927591512
 30
0.0
 11
153.9406525198939
 21
234.1478927591511
 31
0.0
  0
LINE
  5
15B
330
1F
100
AcDbEntity
  8
センター成果
  6
USER_6
 62
     7
370
    18
100
AcDbLine
 10
177.5666525198939
 20
234.3478927591511
 30
0.0
 11
177.3386525198939
 21
226.8878927591512
 31
0.0
  0
LINE
  5
15C
330
1F
100
AcDbEntity
  8
センター成果
  6
USER_6
 62
     7
370
    18
100
AcDbLine
 10
177.3386525198939
 20
226.8878927591512
 30
0.0
 11
173.5066525198939
 21
226.3978927591511
 31
0.0
  0
LINE
  5
15D
330
1F
100
AcDbEntity
  8
センター成果
  6
USER_6
 62
     7
370
    18
100
AcDbLine
 10
173.5066525198939
 20
226.3978927591511
 30
0.0
 11
173.5066525198939
 21
202.3478927591511
 31
0.0
  0
LINE
  5
15E
330
1F
100
AcDbEntity
  8
センター成果
  6
Continuous
 62
     7
370
    18
100
AcDbLine
 10
173.5066525198939
 20
202.3478927591511
 30
0.0
 11
175.4226525198939
 21
201.3678927591512
 31
0.0
  0
LINE
  5
15F
330
1F
100
AcDbEntity
  8
センター成果
  6
Continuous
 62
     7
370
    18
100
AcDbLine
 10
175.4226525198939
 20
201.3678927591512
 30
0.0
 11
176.8966525198939
 21
201.3378927591511
 31
0.0
  0
LINE
  5
160
330
1F
100
AcDbEntity
  8
センター成果
  6
Continuous
 62
     7
370
    18
100
AcDbLine
 10
181.6666525198939
 20
189.9378927591512
 30
0.0
 11
187.8846525198939
 21
190.1578927591512
 31
0.0
  0
LINE
  5
161
330
1F
100
AcDbEntity
  8
センター成果
  6
Continuous
 62
     7
370
    18
100
AcDbLine
 10
187.8846525198939
 20
190.1578927591512
 30
0.0
 11
192.8846525198939
 21
190.1578927591512
 31
0.0
  0
TEXT
  5
162
330
1F
100
AcDbEntity
  8
センター地盤高・垂直距離
  6
Continuous
 62
     7
370
    13
100
AcDbText
 10
68.77750692602417
 20
86.37184458048804
 30
0.0
 40
1.915708812260537
  1
2.73
 50
90.00000000000001
  7
ＭＳ ゴシック
 72
     2
 11
67.8196525198939
 21
91.3545560091512
 31
0.0
100
AcDbText
 73
     2
  0
TEXT
  5
163
330
1F
100
AcDbEntity
  8
センター地盤高・垂直距離
  6
Continuous
 62
     7
370
    13
100
AcDbText
 10
88.77750692602417
 20
86.37184458048804
 30
0.0
 40
1.915708812260537
  1
3.69
 50
90.00000000000001
  7
ＭＳ ゴシック
 72
     2
 11
87.8196525198939
 21
91.3545560091512
 31
0.0
100
AcDbText
 73
     2
  0
TEXT
  5
164
330
1F
100
AcDbEntity
  8
センター地盤高・垂直距離
  6
Continuous
 62
     7
370
    13
100
AcDbText
 10
128.7775069260242
 20
86.37184458048804
 30
0.0
 40
1.915708812260537
  1
3.65
 50
90.00000000000001
  7
ＭＳ ゴシック
 72
     2
 11
127.8196525198939
 21
91.3545560091512
 31
0.0
100
AcDbText
 73
     2
  0
TEXT
  5
165
330
1F
100
AcDbEntity
  8
センター地盤高・垂直距離
  6
Continuous
 62
     7
370
    13
100
AcDbText
 10
148.7775069260242
 20
86.37184458048804
 30
0.0
 40
1.915708812260537
  1
3.68
 50
90.00000000000001
  7
ＭＳ ゴシック
 72
     2
 11
147.8196525198939
 21
91.3545560091512
 31
0.0
100
AcDbText
 73
     2
  0
TEXT
  5
166
330
1F
100
AcDbEntity
  8
センター地盤高・垂直距離
  6
Continuous
 62
     7
370
    13
100
AcDbText
 10
168.7775069260242
 20
86.37184458048804
 30
0.0
 40
1.915708812260537
  1
3.88
 50
90.00000000000001
  7
ＭＳ ゴシック
 72
     2
 11
167.8196525198939
 21
91.3545560091512
 31
0.0
100
AcDbText
 73
     2
  0
TEXT
  5
167
330
1F
100
AcDbEntity
  8
センター地盤高・垂直距離
  6
Continuous
 62
     7
370
    13
100
AcDbText
 10
189.3995069260242
 20
86.37184458048804
 30
0.0
 40
1.915708812260537
  1
2.55
 50
90.00000000000001
  7
ＭＳ ゴシック
 72
     2
 11
188.4416525198939
 21
91.3545560091512
 31
0.0
100
AcDbText
 73
     2
  0
LINE
  5
168
330
1F
100
AcDbEntity
  8
作業ﾚｲﾔ1
  6
Continuous
 62
     7
370
    18
100
AcDbLine
 10
176.8966525198939
 20
201.3378927591511
 30
0.0
 11
176.8966525198939
 21
199.4378927591511
 31
0.0
  0
LINE
  5
169
330
1F
100
AcDbEntity
  8
作業ﾚｲﾔ1
  6
Continuous
 62
     7
370
    18
100
AcDbLine
 10
176.8966525198939
 20
199.4378927591511
 30
0.0
 11
177.6916525198939
 21
199.4378927591511
 31
0.0
  0
LINE
  5
16A
330
1F
100
AcDbEntity
  8
作業ﾚｲﾔ1
  6
Continuous
 62
     7
370
    18
100
AcDbLine
 10
177.6916525198939
 20
199.4378927591511
 30
0.0
 11
177.6916525198939
 21
197.5378927591511
 31
0.0
  0
LINE
  5
16B
330
1F
100
AcDbEntity
  8
作業ﾚｲﾔ1
  6
Continuous
 62
     7
370
    18
100
AcDbLine
 10
177.6916525198939
 20
197.5378927591511
 30
0.0
 11
178.4866525198939
 21
197.5378927591511
 31
0.0
  0
LINE
  5
16C
330
1F
100
AcDbEntity
  8
作業ﾚｲﾔ1
  6
Continuous
 62
     7
370
    18
100
AcDbLine
 10
178.4866525198939
 20
197.5378927591511
 30
0.0
 11
178.4866525198939
 21
195.6378927591511
 31
0.0
  0
LINE
  5
16D
330
1F
100
AcDbEntity
  8
作業ﾚｲﾔ1
  6
Continuous
 62
     7
370
    18
100
AcDbLine
 10
178.4866525198939
 20
195.6378927591511
 30
0.0
 11
179.2816525198939
 21
195.6378927591511
 31
0.0
  0
LINE
  5
16E
330
1F
100
AcDbEntity
  8
作業ﾚｲﾔ1
  6
Continuous
 62
     7
370
    18
100
AcDbLine
 10
179.2816525198939
 20
195.6378927591511
 30
0.0
 11
179.2816525198939
 21
193.7378927591511
 31
0.0
  0
LINE
  5
16F
330
1F
100
AcDbEntity
  8
作業ﾚｲﾔ1
  6
Continuous
 62
     7
370
    18
100
AcDbLine
 10
179.2816525198939
 20
193.7378927591511
 30
0.0
 11
180.0766525198939
 21
193.7378927591511
 31
0.0
  0
LINE
  5
170
330
1F
100
AcDbEntity
  8
作業ﾚｲﾔ1
  6
Continuous
 62
     7
370
    18
100
AcDbLine
 10
180.0766525198939
 20
193.7378927591511
 30
0.0
 11
180.0766525198939
 21
191.8378927591511
 31
0.0
  0
LINE
  5
171
330
1F
100
AcDbEntity
  8
作業ﾚｲﾔ1
  6
Continuous
 62
     7
370
    18
100
AcDbLine
 10
180.0766525198939
 20
191.8378927591511
 30
0.0
 11
180.8716525198939
 21
191.8378927591511
 31
0.0
  0
LINE
  5
172
330
1F
100
AcDbEntity
  8
作業ﾚｲﾔ1
  6
Continuous
 62
     7
370
    18
100
AcDbLine
 10
180.8716525198939
 20
191.8378927591511
 30
0.0
 11
180.8716525198939
 21
189.9378927591512
 31
0.0
  0
LINE
  5
173
330
1F
100
AcDbEntity
  8
作業ﾚｲﾔ1
  6
Continuous
 62
     7
370
    18
100
AcDbLine
 10
180.8716525198939
 20
189.9378927591512
 30
0.0
 11
181.6666525198939
 21
189.9378927591512
 31
0.0
  0
LINE
  5
174
330
1F
100
AcDbEntity
  8
作業ﾚｲﾔ1
  6
USER_6
 62
     7
370
    18
100
AcDbLine
 10
153.9406525198939
 20
234.1478927591511
 30
0.0
 11
154.1706525198939
 21
234.1478927591511
 31
0.0
  0
LINE
  5
175
330
1F
100
AcDbEntity
  8
作業ﾚｲﾔ1
  6
USER_6
 62
     7
370
    18
100
AcDbLine
 10
154.1706525198939
 20
234.1478927591511
 30
0.0
 11
154.1706525198939
 21
232.9878927591512
 31
0.0
  0
LINE
  5
176
330
1F
100
AcDbEntity
  8
作業ﾚｲﾔ1
  6
USER_6
 62
     7
370
    18
100
AcDbLine
 10
154.1706525198939
 20
232.9878927591512
 30
0.0
 11
177.3366525198939
 21
232.9878927591512
 31
0.0
  0
LINE
  5
177
330
1F
100
AcDbEntity
  8
作業ﾚｲﾔ1
  6
USER_6
 62
     7
370
    18
100
AcDbLine
 10
177.3366525198939
 20
232.9878927591512
 30
0.0
 11
177.3366525198939
 21
234.3478927591511
 31
0.0
  0
LINE
  5
178
330
1F
100
AcDbEntity
  8
作業ﾚｲﾔ1
  6
USER_6
 62
     7
370
    18
100
AcDbLine
 10
177.3366525198939
 20
234.3478927591511
 30
0.0
 11
177.5666525198939
 21
234.3478927591511
 31
0.0
  0
TEXT
  5
179
330
1F
100
AcDbEntity
  8
作業ﾚｲﾔ1
  6
Continuous
 62
     7
370
    13
100
AcDbText
 10
160.7481311556766
 20
218.2918066741428
 30
0.0
 40
1.915708812260537
  1
管理棟
  7
ＭＳ ゴシック
 72
     1
 11
164.4851647271739
 21
219.2496610802731
 31
0.0
100
AcDbText
 73
     2
  0
LINE
  5
17A
330
1F
100
AcDbEntity
  8
作業ﾚｲﾔ1
  6
Continuous
 62
     7
370
    13
100
AcDbLine
 10
75.40462608423604
 20
208.6004862684383
 30
0.0
 11
84.18769276743441
 21
209.522436302964
 31
0.0
  0
LINE
  5
17B
330
1F
100
AcDbEntity
  8
作業ﾚｲﾔ1
  6
Continuous
 62
     7
370
    13
100
AcDbLine
 10
75.40462608423604
 20
208.6004862684383
 30
0.0
 11
77.35889932329027
 21
209.1407891633293
 31
0.0
  0
TEXT
  5
17C
330
1F
100
AcDbEntity
  8
作業ﾚｲﾔ1
  6
Continuous
 62
     7
370
    13
100
AcDbText
 10
84.18769276743441
 20
208.6295818968337
 30
0.0
 40
1.915708812260537
  1
パイプφ120
  7
ＭＳ ゴシック
 11
84.18769276743441
 21
209.587436302964
 31
0.0
100
AcDbText
 73
     2
  0
TEXT
  5
17D
330
1F
100
AcDbEntity
  8
作業ﾚｲﾔ1
  6
Continuous
 62
     7
370
    13
100
AcDbText
 10
69.5595173248645
 20
189.6030885379749
 30
0.0
 40
1.915708812260537
  1
g
  7
ＭＳ ゴシック
 72
     1
 11
70.1823562534474
 21
190.5609429441052
 31
0.0
100
AcDbText
 73
     2
  0
TEXT
  5
17E
330
1F
100
AcDbEntity
  8
作業ﾚｲﾔ1
  6
Continuous
 62
     7
370
    13
100
AcDbText
 10
73.4014352432342
 20
200.5751064273572
 30
0.0
 40
1.915708812260537
  1
Co
  7
ＭＳ ゴシック
 72
     1
 11
74.64711310039999
 21
201.5329608334874
 31
0.0
100
AcDbText
 73
     2
  0
TEXT
  5
17F
330
1F
100
AcDbEntity
  8
作業ﾚｲﾔ1
  6
Continuous
 62
     7
370
    13
100
AcDbText
 10
116.6279209821625
 20
198.7696421030923
 30
0.0
 40
1.915708812260537
  1
Co
  7
ＭＳ ゴシック
 72
     1
 11
117.8735988393283
 21
199.7274965092226
 31
0.0
100
AcDbText
 73
     2
  0
TEXT
  5
180
330
1F
100
AcDbEntity
  8
作業ﾚｲﾔ1
  6
Continuous
 62
     7
370
    13
100
AcDbText
 10
170.9781223099903
 20
199.678015096792
 30
0.0
 40
1.915708812260537
  1
ﾀｲﾙ
  7
ＭＳ ゴシック
 72
     1
 11
172.846639095739
 21
200.6358695029223
 31
0.0
100
AcDbText
 73
     2
  0
TEXT
  5
181
330
1F
100
AcDbEntity
  8
作業ﾚｲﾔ1
  6
Continuous
 62
     7
370
    13
100
AcDbText
 10
183.5853378498603
 20
187.4424736008156
 30
0.0
 40
1.915708812260537
  1
As
  7
ＭＳ ゴシック
 72
     1
 11
184.8310157070261
 21
188.4003280069458
 31
0.0
100
AcDbText
 73
     2
  0
TEXT
  5
182
330
1F
100
AcDbEntity
  8
作業ﾚｲﾔ1
  6
Continuous
 62
     7
370
    13
100
AcDbText
 10
108.9067042628413
 20
196.2146285794327
 30
0.0
 40
1.685823754789272
  1
(Co上1㎝厚マット)
 41
0.98
  7
ＭＳ ゴシック
 72
     1
 11
118.0380212270094
 21
197.0575404568273
 31
0.0
100
AcDbText
 73
     2
  0
TEXT
  5
183
330
1F
100
AcDbEntity
  8
センター地盤高・垂直距離
  6
Continuous
 62
     7
370
    13
100
AcDbText
 10
108.7775069260242
 20
86.37184458048804
 30
0.0
 40
1.915708812260537
  1
3.63
 50
90.00000000000001
  7
ＭＳ ゴシック
 72
     2
 11
107.8196525198939
 21
91.3545560091512
 31
0.0
100
AcDbText
 73
     2
  0
LINE
  5
184
330
1F
100
AcDbEntity
  8
作業ﾚｲﾔ1
  6
Continuous
 62
     7
370
    18
100
AcDbLine
 10
68.0746525198939
 20
193.7878927591512
 30
0.0
 11
68.0746525198939
 21
195.4378927591512
 31
0.0
  0
LINE
  5
185
330
1F
100
AcDbEntity
  8
作業ﾚｲﾔ1
  6
Continuous
 62
     7
370
    18
100
AcDbLine
 10
68.0746525198939
 20
195.8378927591512
 30
0.0
 11
68.0746525198939
 21
196.2378927591512
 31
0.0
  0
LINE
  5
186
330
1F
100
AcDbEntity
  8
作業ﾚｲﾔ1
  6
Continuous
 62
     7
370
    18
100
AcDbLine
 10
68.0746525198939
 20
196.6378927591512
 30
0.0
 11
68.0746525198939
 21
198.6378927591512
 31
0.0
  0
LINE
  5
187
330
1F
100
AcDbEntity
  8
作業ﾚｲﾔ1
  6
Continuous
 62
     7
370
    18
100
AcDbLine
 10
68.0746525198939
 20
199.0378927591512
 30
0.0
 11
68.0746525198939
 21
199.4378927591512
 31
0.0
  0
LINE
  5
188
330
1F
100
AcDbEntity
  8
作業ﾚｲﾔ1
  6
Continuous
 62
     7
370
    18
100
AcDbLine
 10
68.0746525198939
 20
199.8378927591512
 30
0.0
 11
68.0746525198939
 21
201.8378927591512
 31
0.0
  0
LINE
  5
189
330
1F
100
AcDbEntity
  8
作業ﾚｲﾔ1
  6
Continuous
 62
     7
370
    18
100
AcDbLine
 10
68.0746525198939
 20
202.2378927591512
 30
0.0
 11
68.0746525198939
 21
202.6378927591512
 31
0.0
  0
LINE
  5
18A
330
1F
100
AcDbEntity
  8
作業ﾚｲﾔ1
  6
Continuous
 62
     7
370
    18
100
AcDbLine
 10
68.0746525198939
 20
203.0378927591512
 30
0.0
 11
68.0746525198939
 21
205.0378927591512
 31
0.0
  0
LINE
  5
18B
330
1F
100
AcDbEntity
  8
作業ﾚｲﾔ1
  6
Continuous
 62
     7
370
    18
100
AcDbLine
 10
68.0746525198939
 20
205.4378927591513
 30
0.0
 11
68.0746525198939
 21
205.8378927591513
 31
0.0
  0
LINE
  5
18C
330
1F
100
AcDbEntity
  8
作業ﾚｲﾔ1
  6
Continuous
 62
     7
370
    18
100
AcDbLine
 10
68.0746525198939
 20
206.2378927591513
 30
0.0
 11
68.0746525198939
 21
208.2378927591513
 31
0.0
  0
LINE
  5
18D
330
1F
100
AcDbEntity
  8
作業ﾚｲﾔ1
  6
Continuous
 62
     7
370
    18
100
AcDbLine
 10
68.0746525198939
 20
208.6378927591513
 30
0.0
 11
68.0746525198939
 21
209.0378927591513
 31
0.0
  0
LINE
  5
18E
330
1F
100
AcDbEntity
  8
作業ﾚｲﾔ1
  6
Continuous
 62
     7
370
    18
100
AcDbLine
 10
68.0746525198939
 20
209.4378927591513
 30
0.0
 11
68.0746525198939
 21
211.4378927591513
 31
0.0
  0
LINE
  5
18F
330
1F
100
AcDbEntity
  8
作業ﾚｲﾔ1
  6
Continuous
 62
     7
370
    18
100
AcDbLine
 10
68.0746525198939
 20
211.8378927591513
 30
0.0
 11
68.0746525198939
 21
212.2378927591513
 31
0.0
  0
LINE
  5
190
330
1F
100
AcDbEntity
  8
作業ﾚｲﾔ1
  6
Continuous
 62
     7
370
    18
100
AcDbLine
 10
68.0746525198939
 20
212.6378927591513
 30
0.0
 11
68.0746525198939
 21
214.2878927591513
 31
0.0
  0
LINE
  5
191
330
1F
100
AcDbEntity
  8
作業ﾚｲﾔ1
  6
Continuous
 62
     7
370
    18
100
AcDbLine
 10
72.7386525198939
 20
205.5078927591512
 30
0.0
 11
72.7386525198939
 21
207.2078927591512
 31
0.0
  0
LINE
  5
192
330
1F
100
AcDbEntity
  8
作業ﾚｲﾔ1
  6
Continuous
 62
     7
370
    18
100
AcDbLine
 10
72.7386525198939
 20
207.6078927591512
 30
0.0
 11
72.7386525198939
 21
208.0078927591512
 31
0.0
  0
LINE
  5
193
330
1F
100
AcDbEntity
  8
作業ﾚｲﾔ1
  6
Continuous
 62
     7
370
    18
100
AcDbLine
 10
72.7386525198939
 20
208.4078927591512
 30
0.0
 11
72.7386525198939
 21
210.4078927591512
 31
0.0
  0
LINE
  5
194
330
1F
100
AcDbEntity
  8
作業ﾚｲﾔ1
  6
Continuous
 62
     7
370
    18
100
AcDbLine
 10
72.7386525198939
 20
210.8078927591512
 30
0.0
 11
72.7386525198939
 21
211.2078927591512
 31
0.0
  0
LINE
  5
195
330
1F
100
AcDbEntity
  8
作業ﾚｲﾔ1
  6
Continuous
 62
     7
370
    18
100
AcDbLine
 10
72.7386525198939
 20
211.6078927591512
 30
0.0
 11
72.7386525198939
 21
213.6078927591512
 31
0.0
  0
LINE
  5
196
330
1F
100
AcDbEntity
  8
作業ﾚｲﾔ1
  6
Continuous
 62
     7
370
    18
100
AcDbLine
 10
72.7386525198939
 20
214.0078927591512
 30
0.0
 11
72.7386525198939
 21
214.4078927591512
 31
0.0
  0
LINE
  5
197
330
1F
100
AcDbEntity
  8
作業ﾚｲﾔ1
  6
Continuous
 62
     7
370
    18
100
AcDbLine
 10
72.7386525198939
 20
214.8078927591512
 30
0.0
 11
72.7386525198939
 21
216.5078927591512
 31
0.0
  0
LINE
  5
198
330
1F
100
AcDbEntity
  8
作業ﾚｲﾔ1
  6
Continuous
 62
     7
370
    18
100
AcDbLine
 10
81.5186525198939
 20
204.3378927591511
 30
0.0
 11
81.5186525198939
 21
206.0378927591511
 31
0.0
  0
LINE
  5
199
330
1F
100
AcDbEntity
  8
作業ﾚｲﾔ1
  6
Continuous
 62
     7
370
    18
100
AcDbLine
 10
81.5186525198939
 20
206.4378927591511
 30
0.0
 11
81.5186525198939
 21
206.8378927591511
 31
0.0
  0
LINE
  5
19A
330
1F
100
AcDbEntity
  8
作業ﾚｲﾔ1
  6
Continuous
 62
     7
370
    18
100
AcDbLine
 10
81.5186525198939
 20
207.2378927591512
 30
0.0
 11
81.5186525198939
 21
209.2378927591512
 31
0.0
  0
LINE
  5
19B
330
1F
100
AcDbEntity
  8
作業ﾚｲﾔ1
  6
Continuous
 62
     7
370
    18
100
AcDbLine
 10
81.5186525198939
 20
209.6378927591512
 30
0.0
 11
81.5186525198939
 21
210.0378927591512
 31
0.0
  0
LINE
  5
19C
330
1F
100
AcDbEntity
  8
作業ﾚｲﾔ1
  6
Continuous
 62
     7
370
    18
100
AcDbLine
 10
81.5186525198939
 20
210.4378927591512
 30
0.0
 11
81.5186525198939
 21
212.4378927591512
 31
0.0
  0
LINE
  5
19D
330
1F
100
AcDbEntity
  8
作業ﾚｲﾔ1
  6
Continuous
 62
     7
370
    18
100
AcDbLine
 10
81.5186525198939
 20
212.8378927591512
 30
0.0
 11
81.5186525198939
 21
213.2378927591512
 31
0.0
  0
LINE
  5
19E
330
1F
100
AcDbEntity
  8
作業ﾚｲﾔ1
  6
Continuous
 62
     7
370
    18
100
AcDbLine
 10
81.5186525198939
 20
213.6378927591512
 30
0.0
 11
81.5186525198939
 21
215.3378927591512
 31
0.0
  0
LINE
  5
19F
330
1F
100
AcDbEntity
  8
作業ﾚｲﾔ1
  6
Continuous
 62
     7
370
    18
100
AcDbLine
 10
67.77465251989435
 20
214.2878927591512
 30
0.0
 11
68.37465251989346
 21
214.2878927591512
 31
0.0
  0
LINE
  5
1A0
330
1F
100
AcDbEntity
  8
作業ﾚｲﾔ1
  6
Continuous
 62
     7
370
    18
100
AcDbLine
 10
72.43865251989435
 20
216.5078927591512
 30
0.0
 11
73.03865251989346
 21
216.5078927591512
 31
0.0
  0
LINE
  5
1A1
330
1F
100
AcDbEntity
  8
作業ﾚｲﾔ1
  6
Continuous
 62
     7
370
    18
100
AcDbLine
 10
81.21865251989435
 20
215.3378927591511
 30
0.0
 11
81.81865251989346
 21
215.3378927591511
 31
0.0
  0
LINE
  5
1A2
330
1F
100
AcDbEntity
  8
作業ﾚｲﾔ1
  6
Continuous
 62
     7
370
    18
100
AcDbLine
 10
175.4226525198939
 20
201.3678927591512
 30
0.0
 11
175.4226525198939
 21
200.3678927591512
 31
0.0
  0
LINE
  5
1A3
330
1F
100
AcDbEntity
  8
作業ﾚｲﾔ1
  6
Continuous
 62
     7
370
    18
100
AcDbLine
 10
181.6666525198947
 20
189.9378927591512
 30
0.0
 11
181.6666525198947
 21
188.9378927591512
 31
0.0
  0
LINE
  5
1A4
330
1F
100
AcDbEntity
  8
作業ﾚｲﾔ1
  6
Continuous
 62
     7
370
    13
100
AcDbLine
 10
67.8846525198939
 20
193.7878927591512
 30
0.0
 11
63.29367526016804
 21
196.8600063661553
 31
0.0
  0
LINE
  5
1A5
330
1F
100
AcDbEntity
  8
作業ﾚｲﾔ1
  6
Continuous
 62
     7
370
    13
100
AcDbLine
 10
67.8846525198939
 20
193.7878927591512
 30
0.0
 11
66.40784837540235
 21
195.1771949688679
 31
0.0
  0
TEXT
  5
1A6
330
1F
100
AcDbEntity
  8
作業ﾚｲﾔ1
  6
Continuous
 62
     7
370
    13
100
AcDbText
 10
60.80231954583647
 20
195.9671519600251
 30
0.0
 40
1.915708812260537
  1
RC
  7
ＭＳ ゴシック
 72
     2
 11
63.29367526016804
 21
196.9250063661553
 31
0.0
100
AcDbText
 73
     2
  0
LINE
  5
1A7
330
1F
100
AcDbEntity
  8
作業ﾚｲﾔ1
  6
Continuous
 62
     7
370
    13
100
AcDbLine
 10
81.7386525198939
 20
203.3199975244224
 30
0.0
 11
86.74363153664622
 21
204.7985390387238
 31
0.0
  0
LINE
  5
1A8
330
1F
100
AcDbEntity
  8
作業ﾚｲﾔ1
  6
Continuous
 62
     7
370
    13
100
AcDbLine
 10
81.7386525198939
 20
203.3199975244224
 30
0.0
 11
83.56227216947967
 21
204.2062945879151
 31
0.0
  0
TEXT
  5
1A9
330
1F
100
AcDbEntity
  8
作業ﾚｲﾔ1
  6
Continuous
 62
     7
370
    13
100
AcDbText
 10
86.74363153664622
 20
203.9056846325935
 30
0.0
 40
1.915708812260537
  1
RC
  7
ＭＳ ゴシック
 11
86.74363153664622
 21
204.8635390387238
 31
0.0
100
AcDbText
 73
     2
  0
LINE
  5
1AA
330
1F
100
AcDbEntity
  8
作業ﾚｲﾔ7
  6
Continuous
 62
     7
370
    50
100
AcDbLine
 10
400.0
 20
277.0
 30
0.0
 11
0.0
 21
277.0
 31
0.0
  0
LINE
  5
1AB
330
1F
100
AcDbEntity
  8
作業ﾚｲﾔ7
  6
Continuous
 62
     7
370
    50
100
AcDbLine
 10
0.0
 20
277.0
 30
0.0
 11
0.0
 21
0.0
 31
0.0
  0
LINE
  5
1AC
330
1F
100
AcDbEntity
  8
作業ﾚｲﾔ7
  6
Continuous
 62
     7
370
    50
100
AcDbLine
 10
0.0
 20
0.0
 30
0.0
 11
400.0
 21
0.0000000000000036
 31
0.0
  0
LINE
  5
1AD
330
1F
100
AcDbEntity
  8
作業ﾚｲﾔ7
  6
Continuous
 62
     7
370
    50
100
AcDbLine
 10
400.0
 20
0.0
 30
0.0
 11
400.0
 21
277.0
 31
0.0
  0
LINE
  5
1AE
330
1F
100
AcDbEntity
  8
作業ﾚｲﾔ7
  6
Continuous
 62
     7
370
    35
100
AcDbLine
 10
310.0
 20
60.00000000000489
 30
0.0
 11
310.0
 21
0.0000000000000036
 31
0.0
  0
LINE
  5
1AF
330
1F
100
AcDbEntity
  8
作業ﾚｲﾔ7
  6
Continuous
 62
     7
370
    35
100
AcDbLine
 10
400.0
 20
60.00000000000489
 30
0.0
 11
310.0
 21
60.00000000000489
 31
0.0
  0
TEXT
  5
1B0
330
1F
100
AcDbEntity
  8
作業ﾚｲﾔ7
  6
Continuous
 62
     7
370
    18
100
AcDbText
 10
330.5051540968826
 20
9.07958620856716
 30
0.0
 40
2.084291187739464
  1
〒238-0004　横須賀市小川町28番地1-202
  7
ＭＳ ゴシック
 72
     1
 11
355.5781580059155
 21
10.12173180243689
 31
0.0
100
AcDbText
 73
     2
  0
TEXT
  5
1B1
330
1F
100
AcDbEntity
  8
作業ﾚｲﾔ7
  6
Continuous
 62
     7
370
    18
100
AcDbText
 10
325.7741580059155
 20
5.196726556010348
 30
0.0
 40
2.513409961685824
  1
有限会社
  7
ＭＳ ゴシック
 11
325.7741580059155
 21
4.737425007584861
 31
0.0
100
AcDbText
 73
     1
  0
TEXT
  5
1B2
330
1F
100
AcDbEntity
  8
作業ﾚｲﾔ7
  6
Continuous
 62
     7
370
    18
100
AcDbText
 10
352.6955710338856
 20
5.021069593821339
 30
0.0
 40
2.513409961685824
  1
オーヤマプランニング
  7
ＭＳ ゴシック
 72
     2
 11
385.3821580059158
 21
4.561768045395851
 31
0.0
100
AcDbText
 73
     1
  0
TEXT
  5
1B3
330
1F
100
AcDbEntity
  8
作業ﾚｲﾔ7
  6
Continuous
 62
     7
370
    18
100
AcDbText
 10
328.1533143025543
 20
1.55762748605065
 30
0.0
 40
1.96168582375479
  1
ＴＥＬ　050-3629-9812　　FAX　050-3629-9816
  7
ＭＳ ゴシック
 72
     1
 11
355.5781580059163
 21
2.538470397928045
 31
0.0
100
AcDbText
 73
     2
  0
LINE
  5
1B4
330
1F
100
AcDbEntity
  8
作業ﾚｲﾔ7
  6
Continuous
 62
     7
370
    35
100
AcDbLine
 10
400.0
 20
13.33333333333815
 30
0.0
 11
310.0
 21
13.33333333333815
 31
0.0
  0
LINE
  5
1B5
330
1F
100
AcDbEntity
  8
作業ﾚｲﾔ7
  6
Continuous
 62
     7
370
    35
100
AcDbLine
 10
400.0
 20
50.00000000000483
 30
0.0
 11
310.0
 21
50.00000000000483
 31
0.0
  0
LINE
  5
1B6
330
1F
100
AcDbEntity
  8
作業ﾚｲﾔ7
  6
Continuous
 62
     7
370
    35
100
AcDbLine
 10
400.0
 20
40.00000000000483
 30
0.0
 11
310.0
 21
40.00000000000483
 31
0.0
  0
LINE
  5
1B7
330
1F
100
AcDbEntity
  8
作業ﾚｲﾔ7
  6
Continuous
 62
     7
370
    35
100
AcDbLine
 10
400.0
 20
31.66666666667152
 30
0.0
 11
310.0
 21
31.66666666667152
 31
0.0
  0
LINE
  5
1B8
330
1F
100
AcDbEntity
  8
作業ﾚｲﾔ7
  6
Continuous
 62
     7
370
    35
100
AcDbLine
 10
400.0
 20
23.33333333333815
 30
0.0
 11
310.0
 21
23.33333333333815
 31
0.0
  0
LINE
  5
1B9
330
1F
100
AcDbEntity
  8
作業ﾚｲﾔ7
  6
Continuous
 62
     7
370
    35
100
AcDbLine
 10
330.0
 20
60.00000000000489
 30
0.0
 11
330.0
 21
13.33333333333815
 31
0.0
  0
LINE
  5
1BA
330
1F
100
AcDbEntity
  8
作業ﾚｲﾔ7
  6
Continuous
 62
     7
370
    35
100
AcDbLine
 10
350.0
 20
31.66666666667152
 30
0.0
 11
350.0
 21
13.33333333333815
 31
0.0
  0
LINE
  5
1BB
330
1F
100
AcDbEntity
  8
作業ﾚｲﾔ7
  6
Continuous
 62
     7
370
    35
100
AcDbLine
 10
370.0
 20
31.66666666667152
 30
0.0
 11
370.0
 21
13.33333333333815
 31
0.0
  0
TEXT
  5
1BC
330
1F
100
AcDbEntity
  8
作業ﾚｲﾔ7
  6
Continuous
 62
     7
370
    18
100
AcDbText
 10
311.3538499551665
 20
53.80717496537839
 30
0.0
 40
2.681992337164751
  1
業　務　名
  7
ＭＳ ゴシック
 72
     1
 11
320.0735949553271
 21
55.14817113396077
 31
0.0
100
AcDbText
 73
     2
  0
TEXT
  5
1BD
330
1F
100
AcDbEntity
  8
作業ﾚｲﾔ7
  6
Continuous
 62
     7
370
    18
100
AcDbText
 10
311.3538499551666
 20
43.80717496537839
 30
0.0
 40
2.681992337164751
  1
所　　　在
  7
ＭＳ ゴシック
 72
     1
 11
320.0735949553271
 21
45.14817113396077
 31
0.0
100
AcDbText
 73
     2
  0
TEXT
  5
1BE
330
1F
100
AcDbEntity
  8
作業ﾚｲﾔ7
  6
Continuous
 62
     7
370
    18
100
AcDbText
 10
311.3867874131144
 20
34.88789912003578
 30
0.0
 40
2.681992337164751
  1
図　面　名
  7
ＭＳ ゴシック
 72
     1
 11
320.1065324132749
 21
36.22889528861815
 31
0.0
100
AcDbText
 73
     2
  0
TEXT
  5
1BF
330
1F
100
AcDbEntity
  8
作業ﾚｲﾔ7
  6
Continuous
 62
     7
370
    18
100
AcDbText
 10
316.6186344132107
 20
26.55456578670247
 30
0.0
 40
2.681992337164751
  1
縮尺
  7
ＭＳ ゴシック
 72
     1
 11
320.1065324132749
 21
27.89556195528484
 31
0.0
100
AcDbText
 73
     2
  0
TEXT
  5
1C0
330
1F
100
AcDbEntity
  8
作業ﾚｲﾔ7
  6
Continuous
 62
     7
370
    18
100
AcDbText
 10
314.8417479552308
 20
17.14050829871171
 30
0.0
 40
2.681992337164751
  1
作成者
  7
ＭＳ ゴシック
 72
     1
 11
320.0735949553271
 21
18.48150446729408
 31
0.0
100
AcDbText
 73
     2
  0
TEXT
  5
1C1
330
1F
100
AcDbEntity
  8
作業ﾚｲﾔ7
  6
Continuous
 62
     7
370
    18
100
AcDbText
 10
353.0977989551987
 20
19.62550454337212
 30
0.0
 40
2.681992337164751
  1
資格登録
  7
ＭＳ ゴシック
 72
     1
 11
360.0735949553271
 21
20.96650071195449
 31
0.0
100
AcDbText
 73
     2
  0
TEXT
  5
1C2
330
1F
100
AcDbEntity
  8
作業ﾚｲﾔ7
  6
Continuous
 62
     7
370
    18
100
AcDbText
 10
356.5856969552629
 20
14.61901093527307
 30
0.0
 40
2.681992337164751
  1
番号
  7
ＭＳ ゴシック
 72
     1
 11
360.0735949553271
 21
15.96000710385544
 31
0.0
100
AcDbText
 73
     2
  0
TEXT
  5
1C3
330
1F
100
AcDbEntity
  8
作業ﾚｲﾔ7
  6
Continuous
 62
     7
370
    18
100
AcDbText
 10
351.9282751540499
 20
34.88789912003583
 30
0.0
 40
2.681992337164751
  1
縦 断 図(ANO)
  7
ＭＳ ゴシック
 72
     1
 11
363.2639436542586
 21
36.22889528861821
 31
0.0
100
AcDbText
 73
     2
  0
TEXT
  5
1C4
330
1F
100
AcDbEntity
  8
作業ﾚｲﾔ7
  6
Continuous
 62
     7
370
    18
100
AcDbText
 10
333.8961784998876
 20
27.9936083596052
 30
0.0
 40
2.681992337164751
  1
V=1/100
  7
ＭＳ ゴシック
 72
     1
 11
340.0
 21
27.50350000000483
 31
0.0
100
AcDbText
 73
     1
  0
TEXT
  5
1C5
330
1F
100
AcDbEntity
  8
作業ﾚｲﾔ7
  6
Continuous
 62
     7
370
    18
100
AcDbText
 10
331.353849955167
 20
17.14050829871177
 30
0.0
 40
2.681992337164751
  1
小野口翔也
  7
ＭＳ ゴシック
 72
     1
 11
340.0735949553275
 21
18.48150446729414
 31
0.0
100
AcDbText
 73
     2
  0
TEXT
  5
1C6
330
1F
100
AcDbEntity
  8
作業ﾚｲﾔ7
  6
Continuous
 62
     7
370
    18
100
AcDbText
 10
378.8961784998876
 20
15.3363409961734
 30
0.0
 40
2.681992337164751
  1
H21-240
  7
ＭＳ ゴシック
 72
     1
 11
385.0
 21
18.01833333333815
 31
0.0
100
AcDbText
 73
     3
  0
TEXT
  5
1C7
330
1F
100
AcDbEntity
  8
作業ﾚｲﾔ7
  6
Continuous
 62
     7
370
    18
100
AcDbText
 10
373.6643314997913
 20
26.25000383142246
 30
0.0
 40
2.681992337164751
  1
令和4年3月3日
  7
ＭＳ ゴシック
 72
     1
 11
385.0
 21
27.59100000000484
 31
0.0
100
AcDbText
 73
     2
  0
TEXT
  5
1C8
330
1F
100
AcDbEntity
  8
作業ﾚｲﾔ7
  6
Continuous
 62
     7
370
    18
100
AcDbText
 10
351.2802549998395
 20
26.25000383142246
 30
0.0
 40
2.681992337164751
  1
作成年月日
  7
ＭＳ ゴシック
 72
     1
 11
360.0
 21
27.59100000000484
 31
0.0
100
AcDbText
 73
     2
  0
TEXT
  5
1C9
330
1F
100
AcDbEntity
  8
作業ﾚｲﾔ7
  6
Continuous
 62
     7
370
    18
100
AcDbText
 10
372.75
 20
18.82694169293852
 30
0.0
 40
2.681992337164751
  1
測量士
  7
ＭＳ ゴシック
 11
372.75
 21
18.33683333333815
 31
0.0
100
AcDbText
 73
     1
  0
TEXT
  5
1CA
330
1F
100
AcDbEntity
  8
作業ﾚｲﾔ7
  6
Continuous
 62
     7
370
    18
100
AcDbText
 10
333.8961784998876
 20
24.50300766284008
 30
0.0
 40
2.681992337164751
  1
H=1/500
  7
ＭＳ ゴシック
 72
     1
 11
340.0
 21
27.18500000000483
 31
0.0
100
AcDbText
 73
     3
  0
LINE
  5
1CB
330
1F
100
AcDbEntity
  8
作業ﾚｲﾔ1
  6
Continuous
 62
     7
370
    18
100
AcDbLine
 10
81.7386525198939
 20
202.0378927591512
 30
0.0
 11
81.7386525198939
 21
201.0378927591512
 31
0.0
  0
TEXT
  5
1CC
330
1F
100
AcDbEntity
  8
作業ﾚｲﾔ7
  6
Continuous
 62
     7
370
    18
100
AcDbText
 10
342.4389675078917
 20
43.80717496537839
 30
0.0
 40
2.681992337164751
  1
横須賀市久里浜6丁目642番6
  7
ＭＳ ゴシック
 72
     1
 11
364.2383300082929
 21
45.14817113396077
 31
0.0
100
AcDbText
 73
     2
  0
TEXT
  5
1CD
330
1F
100
AcDbEntity
  8
作業ﾚｲﾔ7
  6
Continuous
 62
     7
370
    13
100
AcDbText
 10
348.7158295610876
 20
54.11008184837343
 30
0.0
 40
2.681992337164751
  1
久里浜公園測量業務
  7
ＭＳ ゴシック
 72
     1
 11
364.4113705613765
 21
55.45107801695581
 31
0.0
100
AcDbText
 73
     2
  0
TEXT
  5
1CE
330
1F
100
AcDbEntity
  8
作業ﾚｲﾔ1
  6
Continuous
 62
     7
370
    13
100
AcDbText
 10
79.6263449602074
 20
199.3789473052721
 30
0.0
 40
1.915708812260537
  1
Co
  7
ＭＳ ゴシック
 72
     1
 11
80.87202281737319
 21
200.3368017114024
 31
0.0
100
AcDbText
 73
     2
  0
LINE
  5
3D5
330
1F
100
AcDbEntity
  8
縦断表 枠
  6
Continuous
 62
     7
370
    18
100
AcDbLine
 10
556.2526525198939
 20
26.35588520199053
 30
0.0
 11
730.9786525198939
 21
26.35588520199053
 31
0.0
  0
LINE
  5
3D6
330
1F
100
AcDbEntity
  8
縦断表 枠
  6
Continuous
 62
     7
370
    18
100
AcDbLine
 10
730.9786525198939
 20
26.35588520199053
 30
0.0
 11
730.9786525198939
 21
11.35455200915118
 31
0.0
  0
LINE
  5
3D7
330
1F
100
AcDbEntity
  8
縦断表 枠
  6
Continuous
 62
     7
370
    18
100
AcDbLine
 10
730.9786525198939
 20
11.35455200915118
 30
0.0
 11
556.2526525198939
 21
11.35455200915118
 31
0.0
  0
LINE
  5
3D8
330
1F
100
AcDbEntity
  8
縦断表 枠
  6
Continuous
 62
     7
370
    18
100
AcDbLine
 10
556.2526525198939
 20
11.35455200915118
 30
0.0
 11
556.2526525198939
 21
26.35588520199053
 31
0.0
  0
LINE
  5
3D9
330
1F
100
AcDbEntity
  8
縦断表 枠
  6
Continuous
 62
     7
370
    18
100
AcDbLine
 10
556.2526525198939
 20
43.02403319403423
 30
0.0
 11
730.9786525198939
 21
43.02403319403423
 31
0.0
  0
LINE
  5
3DA
330
1F
100
AcDbEntity
  8
縦断表 枠
  6
Continuous
 62
     7
370
    18
100
AcDbLine
 10
730.9786525198939
 20
43.02403319403423
 30
0.0
 11
730.9786525198939
 21
28.02270000119489
 31
0.0
  0
LINE
  5
3DB
330
1F
100
AcDbEntity
  8
縦断表 枠
  6
Continuous
 62
     7
370
    18
100
AcDbLine
 10
730.9786525198939
 20
28.02270000119489
 30
0.0
 11
556.2526525198939
 21
28.02270000119489
 31
0.0
  0
LINE
  5
3DC
330
1F
100
AcDbEntity
  8
縦断表 枠
  6
Continuous
 62
     7
370
    18
100
AcDbLine
 10
556.2526525198939
 20
28.02270000119489
 30
0.0
 11
556.2526525198939
 21
43.02403319403423
 31
0.0
  0
LINE
  5
3DD
330
1F
100
AcDbEntity
  8
縦断表 枠
  6
Continuous
 62
     7
370
    18
100
AcDbLine
 10
556.2526525198939
 20
59.69218118607795
 30
0.0
 11
730.9786525198939
 21
59.69218118607795
 31
0.0
  0
LINE
  5
3DE
330
1F
100
AcDbEntity
  8
縦断表 枠
  6
Continuous
 62
     7
370
    18
100
AcDbLine
 10
730.9786525198939
 20
59.69218118607795
 30
0.0
 11
730.9786525198939
 21
44.69084799323861
 31
0.0
  0
LINE
  5
3DF
330
1F
100
AcDbEntity
  8
縦断表 枠
  6
Continuous
 62
     7
370
    18
100
AcDbLine
 10
730.9786525198939
 20
44.69084799323861
 30
0.0
 11
556.2526525198939
 21
44.69084799323861
 31
0.0
  0
LINE
  5
3E0
330
1F
100
AcDbEntity
  8
縦断表 枠
  6
Continuous
 62
     7
370
    18
100
AcDbLine
 10
556.2526525198939
 20
44.69084799323861
 30
0.0
 11
556.2526525198939
 21
59.69218118607795
 31
0.0
  0
LINE
  5
3E1
330
1F
100
AcDbEntity
  8
縦断表 枠
  6
Continuous
 62
     7
370
    18
100
AcDbLine
 10
556.2526525198939
 20
76.36032917812167
 30
0.0
 11
730.9786525198939
 21
76.36032917812167
 31
0.0
  0
LINE
  5
3E2
330
1F
100
AcDbEntity
  8
縦断表 枠
  6
Continuous
 62
     7
370
    18
100
AcDbLine
 10
730.9786525198939
 20
76.36032917812167
 30
0.0
 11
730.9786525198939
 21
61.35899598528232
 31
0.0
  0
LINE
  5
3E3
330
1F
100
AcDbEntity
  8
縦断表 枠
  6
Continuous
 62
     7
370
    18
100
AcDbLine
 10
730.9786525198939
 20
61.35899598528232
 30
0.0
 11
556.2526525198939
 21
61.35899598528232
 31
0.0
  0
LINE
  5
3E4
330
1F
100
AcDbEntity
  8
縦断表 枠
  6
Continuous
 62
     7
370
    18
100
AcDbLine
 10
556.2526525198939
 20
61.35899598528232
 30
0.0
 11
556.2526525198939
 21
76.36032917812167
 31
0.0
  0
LINE
  5
3E5
330
1F
100
AcDbEntity
  8
縦断表 枠
  6
Continuous
 62
     7
370
    18
100
AcDbLine
 10
556.2526525198939
 20
93.0284771701654
 30
0.0
 11
730.9786525198939
 21
93.0284771701654
 31
0.0
  0
LINE
  5
3E6
330
1F
100
AcDbEntity
  8
縦断表 枠
  6
Continuous
 62
     7
370
    18
100
AcDbLine
 10
730.9786525198939
 20
93.0284771701654
 30
0.0
 11
730.9786525198939
 21
78.02714397732605
 31
0.0
  0
LINE
  5
3E7
330
1F
100
AcDbEntity
  8
縦断表 枠
  6
Continuous
 62
     7
370
    18
100
AcDbLine
 10
730.9786525198939
 20
78.02714397732605
 30
0.0
 11
556.2526525198939
 21
78.02714397732605
 31
0.0
  0
LINE
  5
3E8
330
1F
100
AcDbEntity
  8
縦断表 枠
  6
Continuous
 62
     7
370
    18
100
AcDbLine
 10
556.2526525198939
 20
78.02714397732605
 30
0.0
 11
556.2526525198939
 21
93.0284771701654
 31
0.0
  0
LINE
  5
3E9
330
1F
100
AcDbEntity
  8
縦断表 枠
  6
Continuous
 62
     7
370
    18
100
AcDbLine
 10
556.2526525198939
 20
109.6966251622091
 30
0.0
 11
730.9786525198939
 21
109.6966251622091
 31
0.0
  0
LINE
  5
3EA
330
1F
100
AcDbEntity
  8
縦断表 枠
  6
Continuous
 62
     7
370
    18
100
AcDbLine
 10
730.9786525198939
 20
109.6966251622091
 30
0.0
 11
730.9786525198939
 21
94.69529196936979
 31
0.0
  0
LINE
  5
3EB
330
1F
100
AcDbEntity
  8
縦断表 枠
  6
Continuous
 62
     7
370
    18
100
AcDbLine
 10
730.9786525198939
 20
94.69529196936979
 30
0.0
 11
556.2526525198939
 21
94.69529196936979
 31
0.0
  0
LINE
  5
3EC
330
1F
100
AcDbEntity
  8
縦断表 枠
  6
Continuous
 62
     7
370
    18
100
AcDbLine
 10
556.2526525198939
 20
94.69529196936979
 30
0.0
 11
556.2526525198939
 21
109.6966251622091
 31
0.0
  0
LINE
  5
3ED
330
1F
100
AcDbEntity
  8
縦断表 枠
  6
Continuous
 62
     7
370
    18
100
AcDbLine
 10
556.2526525198939
 20
126.3647731542528
 30
0.0
 11
730.9786525198939
 21
126.3647731542528
 31
0.0
  0
LINE
  5
3EE
330
1F
100
AcDbEntity
  8
縦断表 枠
  6
Continuous
 62
     7
370
    18
100
AcDbLine
 10
730.9786525198939
 20
126.3647731542528
 30
0.0
 11
730.9786525198939
 21
111.3634399614135
 31
0.0
  0
LINE
  5
3EF
330
1F
100
AcDbEntity
  8
縦断表 枠
  6
Continuous
 62
     7
370
    18
100
AcDbLine
 10
730.9786525198939
 20
111.3634399614135
 30
0.0
 11
556.2526525198939
 21
111.3634399614135
 31
0.0
  0
LINE
  5
3F0
330
1F
100
AcDbEntity
  8
縦断表 枠
  6
Continuous
 62
     7
370
    18
100
AcDbLine
 10
556.2526525198939
 20
111.3634399614135
 30
0.0
 11
556.2526525198939
 21
126.3647731542528
 31
0.0
  0
LINE
  5
3F1
330
1F
100
AcDbEntity
  8
縦断表 枠
  6
Continuous
 62
     7
370
    18
100
AcDbLine
 10
556.2526525198939
 20
143.0329211462966
 30
0.0
 11
730.9786525198939
 21
143.0329211462966
 31
0.0
  0
LINE
  5
3F2
330
1F
100
AcDbEntity
  8
縦断表 枠
  6
Continuous
 62
     7
370
    18
100
AcDbLine
 10
730.9786525198939
 20
143.0329211462966
 30
0.0
 11
730.9786525198939
 21
128.0315879534572
 31
0.0
  0
LINE
  5
3F3
330
1F
100
AcDbEntity
  8
縦断表 枠
  6
Continuous
 62
     7
370
    18
100
AcDbLine
 10
730.9786525198939
 20
128.0315879534572
 30
0.0
 11
556.2526525198939
 21
128.0315879534572
 31
0.0
  0
LINE
  5
3F4
330
1F
100
AcDbEntity
  8
縦断表 枠
  6
Continuous
 62
     7
370
    18
100
AcDbLine
 10
556.2526525198939
 20
128.0315879534572
 30
0.0
 11
556.2526525198939
 21
143.0329211462966
 31
0.0
  0
LINE
  5
3F5
330
1F
100
AcDbEntity
  8
縦断表 枠
  6
Continuous
 62
     7
370
    18
100
AcDbLine
 10
556.2526525198939
 20
159.7010691383403
 30
0.0
 11
730.9786525198939
 21
159.7010691383403
 31
0.0
  0
LINE
  5
3F6
330
1F
100
AcDbEntity
  8
縦断表 枠
  6
Continuous
 62
     7
370
    18
100
AcDbLine
 10
730.9786525198939
 20
159.7010691383403
 30
0.0
 11
730.9786525198939
 21
144.6997359455009
 31
0.0
  0
LINE
  5
3F7
330
1F
100
AcDbEntity
  8
縦断表 枠
  6
Continuous
 62
     7
370
    18
100
AcDbLine
 10
730.9786525198939
 20
144.6997359455009
 30
0.0
 11
556.2526525198939
 21
144.6997359455009
 31
0.0
  0
LINE
  5
3F8
330
1F
100
AcDbEntity
  8
縦断表 枠
  6
Continuous
 62
     7
370
    18
100
AcDbLine
 10
556.2526525198939
 20
144.6997359455009
 30
0.0
 11
556.2526525198939
 21
159.7010691383403
 31
0.0
  0
LINE
  5
3F9
330
1F
100
AcDbEntity
  8
縦断表 枠
  6
Continuous
 62
     7
370
    18
100
AcDbLine
 10
523.2526525198939
 20
26.35588520199053
 30
0.0
 11
553.2526525198939
 21
26.35588520199053
 31
0.0
  0
LINE
  5
3FA
330
1F
100
AcDbEntity
  8
縦断表 枠
  6
Continuous
 62
     7
370
    18
100
AcDbLine
 10
553.2526525198939
 20
26.35588520199053
 30
0.0
 11
553.2526525198939
 21
11.35455200915118
 31
0.0
  0
LINE
  5
3FB
330
1F
100
AcDbEntity
  8
縦断表 枠
  6
Continuous
 62
     7
370
    18
100
AcDbLine
 10
553.2526525198939
 20
11.35455200915118
 30
0.0
 11
523.2526525198939
 21
11.35455200915118
 31
0.0
  0
LINE
  5
3FC
330
1F
100
AcDbEntity
  8
縦断表 枠
  6
Continuous
 62
     7
370
    18
100
AcDbLine
 10
523.2526525198939
 20
11.35455200915118
 30
0.0
 11
523.2526525198939
 21
26.35588520199053
 31
0.0
  0
TEXT
  5
3FD
330
1F
100
AcDbEntity
  8
曲線
  6
Continuous
 62
     7
370
    13
100
AcDbText
 10
533.2737544900594
 20
17.06950979331029
 30
0.0
 40
3.831417624521073
  1
曲線
  7
ＭＳ ゴシック
 72
     1
 11
538.2526525198939
 21
18.98521860557083
 31
0.0
100
AcDbText
 73
     2
  0
LINE
  5
3FE
330
1F
100
AcDbEntity
  8
縦断表 枠
  6
Continuous
 62
     7
370
    18
100
AcDbLine
 10
523.2526525198939
 20
43.02403319403423
 30
0.0
 11
553.2526525198939
 21
43.02403319403423
 31
0.0
  0
LINE
  5
3FF
330
1F
100
AcDbEntity
  8
縦断表 枠
  6
Continuous
 62
     7
370
    18
100
AcDbLine
 10
553.2526525198939
 20
43.02403319403423
 30
0.0
 11
553.2526525198939
 21
28.02270000119489
 31
0.0
  0
LINE
  5
400
330
1F
100
AcDbEntity
  8
縦断表 枠
  6
Continuous
 62
     7
370
    18
100
AcDbLine
 10
553.2526525198939
 20
28.02270000119489
 30
0.0
 11
523.2526525198939
 21
28.02270000119489
 31
0.0
  0
LINE
  5
401
330
1F
100
AcDbEntity
  8
縦断表 枠
  6
Continuous
 62
     7
370
    18
100
AcDbLine
 10
523.2526525198939
 20
28.02270000119489
 30
0.0
 11
523.2526525198939
 21
43.02403319403423
 31
0.0
  0
TEXT
  5
402
330
1F
100
AcDbEntity
  8
測点
  6
Continuous
 62
     7
370
    13
100
AcDbText
 10
533.2737544900594
 20
33.73765778535402
 30
0.0
 40
3.831417624521073
  1
測点
  7
ＭＳ ゴシック
 72
     1
 11
538.2526525198939
 21
35.65336659761456
 31
0.0
100
AcDbText
 73
     2
  0
LINE
  5
403
330
1F
100
AcDbEntity
  8
縦断表 枠
  6
Continuous
 62
     7
370
    18
100
AcDbLine
 10
523.2526525198939
 20
59.69218118607795
 30
0.0
 11
553.2526525198939
 21
59.69218118607795
 31
0.0
  0
LINE
  5
404
330
1F
100
AcDbEntity
  8
縦断表 枠
  6
Continuous
 62
     7
370
    18
100
AcDbLine
 10
553.2526525198939
 20
59.69218118607795
 30
0.0
 11
553.2526525198939
 21
44.69084799323861
 31
0.0
  0
LINE
  5
405
330
1F
100
AcDbEntity
  8
縦断表 枠
  6
Continuous
 62
     7
370
    18
100
AcDbLine
 10
553.2526525198939
 20
44.69084799323861
 30
0.0
 11
523.2526525198939
 21
44.69084799323861
 31
0.0
  0
LINE
  5
406
330
1F
100
AcDbEntity
  8
縦断表 枠
  6
Continuous
 62
     7
370
    18
100
AcDbLine
 10
523.2526525198939
 20
44.69084799323861
 30
0.0
 11
523.2526525198939
 21
59.69218118607795
 31
0.0
  0
TEXT
  5
407
330
1F
100
AcDbEntity
  8
単距離
  6
Continuous
 62
     7
370
    13
100
AcDbText
 10
530.7843054751422
 20
50.40580577739773
 30
0.0
 40
3.831417624521073
  1
単距離
  7
ＭＳ ゴシック
 72
     1
 11
538.2526525198939
 21
52.32151458965827
 31
0.0
100
AcDbText
 73
     2
  0
LINE
  5
408
330
1F
100
AcDbEntity
  8
縦断表 枠
  6
Continuous
 62
     7
370
    18
100
AcDbLine
 10
523.2526525198939
 20
76.36032917812167
 30
0.0
 11
553.2526525198939
 21
76.36032917812167
 31
0.0
  0
LINE
  5
409
330
1F
100
AcDbEntity
  8
縦断表 枠
  6
Continuous
 62
     7
370
    18
100
AcDbLine
 10
553.2526525198939
 20
76.36032917812167
 30
0.0
 11
553.2526525198939
 21
61.35899598528232
 31
0.0
  0
LINE
  5
40A
330
1F
100
AcDbEntity
  8
縦断表 枠
  6
Continuous
 62
     7
370
    18
100
AcDbLine
 10
553.2526525198939
 20
61.35899598528232
 30
0.0
 11
523.2526525198939
 21
61.35899598528232
 31
0.0
  0
LINE
  5
40B
330
1F
100
AcDbEntity
  8
縦断表 枠
  6
Continuous
 62
     7
370
    18
100
AcDbLine
 10
523.2526525198939
 20
61.35899598528232
 30
0.0
 11
523.2526525198939
 21
76.36032917812167
 31
0.0
  0
TEXT
  5
40C
330
1F
100
AcDbEntity
  8
追加距離
  6
Continuous
 62
     7
370
    13
100
AcDbText
 10
528.2948564602249
 20
67.07395376944146
 30
0.0
 40
3.831417624521073
  1
追加距離
  7
ＭＳ ゴシック
 72
     1
 11
538.2526525198939
 21
68.98966258170199
 31
0.0
100
AcDbText
 73
     2
  0
LINE
  5
40D
330
1F
100
AcDbEntity
  8
縦断表 枠
  6
Continuous
 62
     7
370
    18
100
AcDbLine
 10
523.2526525198939
 20
93.0284771701654
 30
0.0
 11
553.2526525198939
 21
93.0284771701654
 31
0.0
  0
LINE
  5
40E
330
1F
100
AcDbEntity
  8
縦断表 枠
  6
Continuous
 62
     7
370
    18
100
AcDbLine
 10
553.2526525198939
 20
93.0284771701654
 30
0.0
 11
553.2526525198939
 21
78.02714397732605
 31
0.0
  0
LINE
  5
40F
330
1F
100
AcDbEntity
  8
縦断表 枠
  6
Continuous
 62
     7
370
    18
100
AcDbLine
 10
553.2526525198939
 20
78.02714397732605
 30
0.0
 11
523.2526525198939
 21
78.02714397732605
 31
0.0
  0
LINE
  5
410
330
1F
100
AcDbEntity
  8
縦断表 枠
  6
Continuous
 62
     7
370
    18
100
AcDbLine
 10
523.2526525198939
 20
78.02714397732605
 30
0.0
 11
523.2526525198939
 21
93.0284771701654
 31
0.0
  0
LINE
  5
411
330
1F
100
AcDbEntity
  8
縦断表 枠
  6
Continuous
 62
     7
370
    18
100
AcDbLine
 10
523.2526525198939
 20
109.6966251622091
 30
0.0
 11
553.2526525198939
 21
109.6966251622091
 31
0.0
  0
LINE
  5
412
330
1F
100
AcDbEntity
  8
縦断表 枠
  6
Continuous
 62
     7
370
    18
100
AcDbLine
 10
553.2526525198939
 20
109.6966251622091
 30
0.0
 11
553.2526525198939
 21
94.69529196936979
 31
0.0
  0
LINE
  5
413
330
1F
100
AcDbEntity
  8
縦断表 枠
  6
Continuous
 62
     7
370
    18
100
AcDbLine
 10
553.2526525198939
 20
94.69529196936979
 30
0.0
 11
523.2526525198939
 21
94.69529196936979
 31
0.0
  0
LINE
  5
414
330
1F
100
AcDbEntity
  8
縦断表 枠
  6
Continuous
 62
     7
370
    18
100
AcDbLine
 10
523.2526525198939
 20
94.69529196936979
 30
0.0
 11
523.2526525198939
 21
109.6966251622091
 31
0.0
  0
TEXT
  5
415
330
1F
100
AcDbEntity
  8
計画高１
  6
Continuous
 62
     7
370
    13
100
AcDbText
 10
530.7843054751422
 20
100.4102497535289
 30
0.0
 40
3.831417624521073
  1
計画高
  7
ＭＳ ゴシック
 72
     1
 11
538.2526525198939
 21
102.3259585657894
 31
0.0
100
AcDbText
 73
     2
  0
LINE
  5
416
330
1F
100
AcDbEntity
  8
縦断表 枠
  6
Continuous
 62
     7
370
    18
100
AcDbLine
 10
523.2526525198939
 20
126.3647731542528
 30
0.0
 11
553.2526525198939
 21
126.3647731542528
 31
0.0
  0
LINE
  5
417
330
1F
100
AcDbEntity
  8
縦断表 枠
  6
Continuous
 62
     7
370
    18
100
AcDbLine
 10
553.2526525198939
 20
126.3647731542528
 30
0.0
 11
553.2526525198939
 21
111.3634399614135
 31
0.0
  0
LINE
  5
418
330
1F
100
AcDbEntity
  8
縦断表 枠
  6
Continuous
 62
     7
370
    18
100
AcDbLine
 10
553.2526525198939
 20
111.3634399614135
 30
0.0
 11
523.2526525198939
 21
111.3634399614135
 31
0.0
  0
LINE
  5
419
330
1F
100
AcDbEntity
  8
縦断表 枠
  6
Continuous
 62
     7
370
    18
100
AcDbLine
 10
523.2526525198939
 20
111.3634399614135
 30
0.0
 11
523.2526525198939
 21
126.3647731542528
 31
0.0
  0
LINE
  5
41A
330
1F
100
AcDbEntity
  8
縦断表 枠
  6
Continuous
 62
     7
370
    18
100
AcDbLine
 10
523.2526525198939
 20
143.0329211462966
 30
0.0
 11
553.2526525198939
 21
143.0329211462966
 31
0.0
  0
LINE
  5
41B
330
1F
100
AcDbEntity
  8
縦断表 枠
  6
Continuous
 62
     7
370
    18
100
AcDbLine
 10
553.2526525198939
 20
143.0329211462966
 30
0.0
 11
553.2526525198939
 21
128.0315879534572
 31
0.0
  0
LINE
  5
41C
330
1F
100
AcDbEntity
  8
縦断表 枠
  6
Continuous
 62
     7
370
    18
100
AcDbLine
 10
553.2526525198939
 20
128.0315879534572
 30
0.0
 11
523.2526525198939
 21
128.0315879534572
 31
0.0
  0
LINE
  5
41D
330
1F
100
AcDbEntity
  8
縦断表 枠
  6
Continuous
 62
     7
370
    18
100
AcDbLine
 10
523.2526525198939
 20
128.0315879534572
 30
0.0
 11
523.2526525198939
 21
143.0329211462966
 31
0.0
  0
LINE
  5
41E
330
1F
100
AcDbEntity
  8
縦断表 枠
  6
Continuous
 62
     7
370
    18
100
AcDbLine
 10
523.2526525198939
 20
159.7010691383403
 30
0.0
 11
553.2526525198939
 21
159.7010691383403
 31
0.0
  0
LINE
  5
41F
330
1F
100
AcDbEntity
  8
縦断表 枠
  6
Continuous
 62
     7
370
    18
100
AcDbLine
 10
553.2526525198939
 20
159.7010691383403
 30
0.0
 11
553.2526525198939
 21
144.6997359455009
 31
0.0
  0
LINE
  5
420
330
1F
100
AcDbEntity
  8
縦断表 枠
  6
Continuous
 62
     7
370
    18
100
AcDbLine
 10
553.2526525198939
 20
144.6997359455009
 30
0.0
 11
523.2526525198939
 21
144.6997359455009
 31
0.0
  0
LINE
  5
421
330
1F
100
AcDbEntity
  8
縦断表 枠
  6
Continuous
 62
     7
370
    18
100
AcDbLine
 10
523.2526525198939
 20
144.6997359455009
 30
0.0
 11
523.2526525198939
 21
159.7010691383403
 31
0.0
  0
TEXT
  5
422
330
1F
100
AcDbEntity
  8
片勾配
  6
Continuous
 62
     7
370
    13
100
AcDbText
 10
533.2737544900594
 20
150.4146937296601
 30
0.0
 40
3.831417624521073
  1
勾配
  7
ＭＳ ゴシック
 72
     1
 11
538.2526525198939
 21
152.3304025419206
 31
0.0
100
AcDbText
 73
     2
  0
LINE
  5
423
330
1F
100
AcDbEntity
  8
曲線
  6
Continuous
 62
     7
370
    18
100
AcDbLine
 10
566.2526525198939
 20
18.85521860557083
 30
0.0
 11
710.9786525198939
 21
18.85521860557083
 31
0.0
  0
TEXT
  5
424
330
1F
100
AcDbEntity
  8
測点
  6
Continuous
 62
     7
370
    13
100
AcDbText
 10
577.8255069260242
 20
29.68951480039928
 30
0.0
 40
1.915708812260537
  1
BNO.0
 50
90.0
  7
ＭＳ ゴシック
 11
576.8676525198939
 21
29.68951480039928
 31
0.0
100
AcDbText
 73
     2
  0
TEXT
  5
425
330
1F
100
AcDbEntity
  8
測点
  6
Continuous
 62
     7
370
    13
100
AcDbText
 10
597.8255069260242
 20
29.68951480039928
 30
0.0
 40
1.915708812260537
  1
BNO.1
 50
90.0
  7
ＭＳ ゴシック
 11
596.8676525198939
 21
29.68951480039928
 31
0.0
100
AcDbText
 73
     2
  0
TEXT
  5
426
330
1F
100
AcDbEntity
  8
測点
  6
Continuous
 62
     7
370
    13
100
AcDbText
 10
617.8255069260242
 20
29.68951480039928
 30
0.0
 40
1.915708812260537
  1
BNO.2
 50
90.0
  7
ＭＳ ゴシック
 11
616.8676525198939
 21
29.68951480039928
 31
0.0
100
AcDbText
 73
     2
  0
TEXT
  5
427
330
1F
100
AcDbEntity
  8
測点
  6
Continuous
 62
     7
370
    13
100
AcDbText
 10
637.8255069260242
 20
29.68951480039928
 30
0.0
 40
1.915708812260537
  1
BNO.3
 50
90.0
  7
ＭＳ ゴシック
 11
636.8676525198939
 21
29.68951480039928
 31
0.0
100
AcDbText
 73
     2
  0
TEXT
  5
428
330
1F
100
AcDbEntity
  8
測点
  6
Continuous
 62
     7
370
    13
100
AcDbText
 10
657.8255069260242
 20
29.68951480039928
 30
0.0
 40
1.915708812260537
  1
BNO.4
 50
90.0
  7
ＭＳ ゴシック
 11
656.8676525198939
 21
29.68951480039928
 31
0.0
100
AcDbText
 73
     2
  0
TEXT
  5
429
330
1F
100
AcDbEntity
  8
測点
  6
Continuous
 62
     7
370
    13
100
AcDbText
 10
677.8255069260242
 20
29.68951480039928
 30
0.0
 40
1.915708812260537
  1
BNO.5
 50
90.0
  7
ＭＳ ゴシック
 11
676.8676525198939
 21
29.68951480039928
 31
0.0
100
AcDbText
 73
     2
  0
TEXT
  5
42A
330
1F
100
AcDbEntity
  8
測点
  6
Continuous
 62
     7
370
    13
100
AcDbText
 10
697.8255069260242
 20
29.68951480039928
 30
0.0
 40
1.915708812260537
  1
BNO.6
 50
90.0
  7
ＭＳ ゴシック
 11
696.8676525198939
 21
29.68951480039928
 31
0.0
100
AcDbText
 73
     2
  0
TEXT
  5
42B
330
1F
100
AcDbEntity
  8
単距離
  6
Continuous
 62
     7
370
    13
100
AcDbText
 10
577.8255069260242
 20
51.80174384958048
 30
0.0
 40
1.915708812260537
  1
0.000
 50
90.0
  7
ＭＳ ゴシック
 72
     2
 11
576.8676525198939
 21
58.02536638687359
 31
0.0
100
AcDbText
 73
     2
  0
TEXT
  5
42C
330
1F
100
AcDbEntity
  8
単距離
  6
Continuous
 62
     7
370
    13
100
AcDbText
 10
597.8255069260242
 20
50.55701934212185
 30
0.0
 40
1.915708812260537
  1
10.000
 50
90.0
  7
ＭＳ ゴシック
 72
     2
 11
596.8676525198939
 21
58.02536638687359
 31
0.0
100
AcDbText
 73
     2
  0
TEXT
  5
42D
330
1F
100
AcDbEntity
  8
単距離
  6
Continuous
 62
     7
370
    13
100
AcDbText
 10
617.8255069260242
 20
50.55701934212185
 30
0.0
 40
1.915708812260537
  1
10.000
 50
90.0
  7
ＭＳ ゴシック
 72
     2
 11
616.8676525198939
 21
58.02536638687359
 31
0.0
100
AcDbText
 73
     2
  0
TEXT
  5
42E
330
1F
100
AcDbEntity
  8
単距離
  6
Continuous
 62
     7
370
    13
100
AcDbText
 10
637.8255069260242
 20
50.55701934212185
 30
0.0
 40
1.915708812260537
  1
10.000
 50
90.0
  7
ＭＳ ゴシック
 72
     2
 11
636.8676525198939
 21
58.02536638687359
 31
0.0
100
AcDbText
 73
     2
  0
TEXT
  5
42F
330
1F
100
AcDbEntity
  8
単距離
  6
Continuous
 62
     7
370
    13
100
AcDbText
 10
657.8255069260242
 20
50.55701934212185
 30
0.0
 40
1.915708812260537
  1
10.000
 50
90.0
  7
ＭＳ ゴシック
 72
     2
 11
656.8676525198939
 21
58.02536638687359
 31
0.0
100
AcDbText
 73
     2
  0
TEXT
  5
430
330
1F
100
AcDbEntity
  8
単距離
  6
Continuous
 62
     7
370
    13
100
AcDbText
 10
677.8255069260242
 20
50.55701934212185
 30
0.0
 40
1.915708812260537
  1
10.000
 50
90.0
  7
ＭＳ ゴシック
 72
     2
 11
676.8676525198939
 21
58.02536638687359
 31
0.0
100
AcDbText
 73
     2
  0
TEXT
  5
431
330
1F
100
AcDbEntity
  8
単距離
  6
Continuous
 62
     7
370
    13
100
AcDbText
 10
697.8255069260242
 20
50.55701934212185
 30
0.0
 40
1.915708812260537
  1
10.000
 50
90.0
  7
ＭＳ ゴシック
 72
     2
 11
696.8676525198939
 21
58.02536638687359
 31
0.0
100
AcDbText
 73
     2
  0
TEXT
  5
432
330
1F
100
AcDbEntity
  8
追加距離
  6
Continuous
 62
     7
370
    13
100
AcDbText
 10
577.8255069260242
 20
68.4698918416242
 30
0.0
 40
1.915708812260537
  1
0.000
 50
90.0
  7
ＭＳ ゴシック
 72
     2
 11
576.8676525198939
 21
74.69351437891731
 31
0.0
100
AcDbText
 73
     2
  0
TEXT
  5
433
330
1F
100
AcDbEntity
  8
追加距離
  6
Continuous
 62
     7
370
    13
100
AcDbText
 10
597.8255069260242
 20
67.22516733416558
 30
0.0
 40
1.915708812260537
  1
10.000
 50
90.0
  7
ＭＳ ゴシック
 72
     2
 11
596.8676525198939
 21
74.69351437891731
 31
0.0
100
AcDbText
 73
     2
  0
TEXT
  5
434
330
1F
100
AcDbEntity
  8
追加距離
  6
Continuous
 62
     7
370
    13
100
AcDbText
 10
617.8255069260242
 20
67.22516733416558
 30
0.0
 40
1.915708812260537
  1
20.000
 50
90.0
  7
ＭＳ ゴシック
 72
     2
 11
616.8676525198939
 21
74.69351437891731
 31
0.0
100
AcDbText
 73
     2
  0
TEXT
  5
435
330
1F
100
AcDbEntity
  8
追加距離
  6
Continuous
 62
     7
370
    13
100
AcDbText
 10
637.8255069260242
 20
67.22516733416558
 30
0.0
 40
1.915708812260537
  1
30.000
 50
90.0
  7
ＭＳ ゴシック
 72
     2
 11
636.8676525198939
 21
74.69351437891731
 31
0.0
100
AcDbText
 73
     2
  0
TEXT
  5
436
330
1F
100
AcDbEntity
  8
追加距離
  6
Continuous
 62
     7
370
    13
100
AcDbText
 10
657.8255069260242
 20
67.22516733416558
 30
0.0
 40
1.915708812260537
  1
40.000
 50
90.0
  7
ＭＳ ゴシック
 72
     2
 11
656.8676525198939
 21
74.69351437891731
 31
0.0
100
AcDbText
 73
     2
  0
TEXT
  5
437
330
1F
100
AcDbEntity
  8
追加距離
  6
Continuous
 62
     7
370
    13
100
AcDbText
 10
677.8255069260242
 20
67.22516733416558
 30
0.0
 40
1.915708812260537
  1
50.000
 50
90.0
  7
ＭＳ ゴシック
 72
     2
 11
676.8676525198939
 21
74.69351437891731
 31
0.0
100
AcDbText
 73
     2
  0
TEXT
  5
438
330
1F
100
AcDbEntity
  8
追加距離
  6
Continuous
 62
     7
370
    13
100
AcDbText
 10
697.8255069260242
 20
67.22516733416558
 30
0.0
 40
1.915708812260537
  1
60.000
 50
90.0
  7
ＭＳ ゴシック
 72
     2
 11
696.8676525198939
 21
74.69351437891731
 31
0.0
100
AcDbText
 73
     2
  0
LINE
  5
439
330
1F
100
AcDbEntity
  8
ＤＬ_目盛_スケールマーク
  6
Continuous
 62
     7
370
    18
100
AcDbLine
 10
538.2526525198939
 20
174.7010691383403
 30
0.0
 11
534.2526525198939
 21
174.7010691383403
 31
0.0
  0
LINE
  5
43A
330
1F
100
AcDbEntity
  8
ＤＬ_目盛_スケールマーク
  6
Continuous
 62
     7
370
    18
100
AcDbLine
 10
538.2526525198939
 20
174.7010691383403
 30
0.0
 11
538.2526525198939
 21
194.7010691383403
 31
0.0
  0
LINE
  5
43B
330
1F
100
AcDbEntity
  8
ＤＬ_目盛_スケールマーク
  6
Continuous
 62
     7
370
    18
100
AcDbLine
 10
534.2526525198939
 20
174.7010691383403
 30
0.0
 11
538.2526525198939
 21
194.7010691383403
 31
0.0
  0
LINE
  5
43C
330
1F
100
AcDbEntity
  8
ＤＬ_目盛_スケールマーク
  6
Continuous
 62
     7
370
    18
100
AcDbLine
 10
523.2526525198939
 20
164.7010691383403
 30
0.0
 11
730.9786525198939
 21
164.7010691383403
 31
0.0
  0
TEXT
  5
43D
330
1F
100
AcDbEntity
  8
ＤＬ_目盛_スケールマーク
  6
Continuous
 62
     7
370
    13
100
AcDbText
 10
546.2526525198939
 20
165.053647906063
 30
0.0
 40
1.915708812260537
  1
DL=0.000
  7
ＭＳ ゴシック
 11
546.2526525198939
 21
164.7035691383403
 31
0.0
100
AcDbText
 73
     1
  0
LINE
  5
43E
330
1F
100
AcDbEntity
  8
ＤＬ_目盛_スケールマーク
  6
Continuous
 62
     7
370
    18
100
AcDbLine
 10
556.2526525198939
 20
164.7010691383403
 30
0.0
 11
556.2526525198939
 21
264.7010691383403
 31
0.0
  0
LINE
  5
43F
330
1F
100
AcDbEntity
  8
ＤＬ_目盛_スケールマーク
  6
Continuous
 62
     7
370
    18
100
AcDbLine
 10
556.2526525198939
 20
214.7010691383403
 30
0.0
 11
546.2526525198939
 21
214.7010691383403
 31
0.0
  0
TEXT
  5
440
330
1F
100
AcDbEntity
  8
ＤＬ_目盛_スケールマーク
  6
Continuous
 62
     7
370
    13
100
AcDbText
 10
550.0026525198939
 20
215.053647906063
 30
0.0
 40
1.915708812260537
  1
5.000
  7
ＭＳ ゴシック
 11
550.0026525198939
 21
214.7035691383403
 31
0.0
100
AcDbText
 73
     1
  0
LINE
  5
441
330
1F
100
AcDbEntity
  8
ＤＬ_目盛_スケールマーク
  6
Continuous
 62
     7
370
    18
100
AcDbLine
 10
556.2526525198939
 20
264.7010691383403
 30
0.0
 11
546.2526525198939
 21
264.7010691383403
 31
0.0
  0
TEXT
  5
442
330
1F
100
AcDbEntity
  8
ＤＬ_目盛_スケールマーク
  6
Continuous
 62
     7
370
    13
100
AcDbText
 10
548.7526525198939
 20
265.053647906063
 30
0.0
 40
1.915708812260537
  1
10.000
  7
ＭＳ ゴシック
 11
548.7526525198939
 21
264.7035691383403
 31
0.0
100
AcDbText
 73
     1
  0
LINE
  5
443
330
1F
100
AcDbEntity
  8
ＤＬ_目盛_スケールマーク
  6
Continuous
 62
     7
370
    18
100
AcDbLine
 10
556.2526525198939
 20
174.7010691383403
 30
0.0
 11
551.2526525198939
 21
174.7010691383403
 31
0.0
  0
LINE
  5
444
330
1F
100
AcDbEntity
  8
ＤＬ_目盛_スケールマーク
  6
Continuous
 62
     7
370
    18
100
AcDbLine
 10
556.2526525198939
 20
184.7010691383403
 30
0.0
 11
551.2526525198939
 21
184.7010691383403
 31
0.0
  0
LINE
  5
445
330
1F
100
AcDbEntity
  8
ＤＬ_目盛_スケールマーク
  6
Continuous
 62
     7
370
    18
100
AcDbLine
 10
556.2526525198939
 20
194.7010691383403
 30
0.0
 11
551.2526525198939
 21
194.7010691383403
 31
0.0
  0
LINE
  5
446
330
1F
100
AcDbEntity
  8
ＤＬ_目盛_スケールマーク
  6
Continuous
 62
     7
370
    18
100
AcDbLine
 10
556.2526525198939
 20
204.7010691383403
 30
0.0
 11
551.2526525198939
 21
204.7010691383403
 31
0.0
  0
LINE
  5
447
330
1F
100
AcDbEntity
  8
ＤＬ_目盛_スケールマーク
  6
Continuous
 62
     7
370
    18
100
AcDbLine
 10
556.2526525198939
 20
224.7010691383403
 30
0.0
 11
551.2526525198939
 21
224.7010691383403
 31
0.0
  0
LINE
  5
448
330
1F
100
AcDbEntity
  8
ＤＬ_目盛_スケールマーク
  6
Continuous
 62
     7
370
    18
100
AcDbLine
 10
556.2526525198939
 20
234.7010691383403
 30
0.0
 11
551.2526525198939
 21
234.7010691383403
 31
0.0
  0
LINE
  5
449
330
1F
100
AcDbEntity
  8
ＤＬ_目盛_スケールマーク
  6
Continuous
 62
     7
370
    18
100
AcDbLine
 10
556.2526525198939
 20
244.7010691383403
 30
0.0
 11
551.2526525198939
 21
244.7010691383403
 31
0.0
  0
LINE
  5
44A
330
1F
100
AcDbEntity
  8
ＤＬ_目盛_スケールマーク
  6
Continuous
 62
     7
370
    18
100
AcDbLine
 10
556.2526525198939
 20
254.7010691383403
 30
0.0
 11
551.2526525198939
 21
254.7010691383403
 31
0.0
  0
TEXT
  5
44B
330
1F
100
AcDbEntity
  8
センター地盤高・垂直距離
  6
Continuous
 62
     7
370
    13
100
AcDbText
 10
530.7843054751422
 20
83.74210176148519
 30
0.0
 40
3.831417624521073
  1
地盤高
  7
ＭＳ ゴシック
 72
     1
 11
538.2526525198939
 21
85.65781057374572
 31
0.0
100
AcDbText
 73
     2
  0
TEXT
  5
44C
330
1F
100
AcDbEntity
  8
切盛１
  6
Continuous
 62
     7
370
    13
100
AcDbText
 10
533.2737544900594
 20
117.0783977455726
 30
0.0
 40
3.831417624521073
  1
切土
  7
ＭＳ ゴシック
 72
     1
 11
538.2526525198939
 21
118.9941065578332
 31
0.0
100
AcDbText
 73
     2
  0
TEXT
  5
44D
330
1F
100
AcDbEntity
  8
切盛２
  6
Continuous
 62
     7
370
    13
100
AcDbText
 10
533.2737544900594
 20
133.7465457376163
 30
0.0
 40
3.831417624521073
  1
盛土
  7
ＭＳ ゴシック
 72
     1
 11
538.2526525198939
 21
135.6622545498769
 31
0.0
100
AcDbText
 73
     2
  0
LINE
  5
44E
330
1F
100
AcDbEntity
  8
縦線
  6
Continuous
 62
     7
370
    13
100
AcDbLine
 10
576.9326525198938
 20
190.7610691383403
 30
0.0
 11
576.9326525198938
 21
164.7010691383403
 31
0.0
  0
LINE
  5
44F
330
1F
100
AcDbEntity
  8
縦線
  6
Continuous
 62
     7
370
    18
100
AcDbLine
 10
576.9326525198938
 20
26.35588520199053
 30
0.0
 11
576.9326525198938
 21
28.02270000119489
 31
0.0
  0
LINE
  5
450
330
1F
100
AcDbEntity
  8
縦線
  6
Continuous
 62
     7
370
    18
100
AcDbLine
 10
576.9326525198938
 20
43.02403319403423
 30
0.0
 11
576.9326525198938
 21
44.69084799323861
 31
0.0
  0
LINE
  5
451
330
1F
100
AcDbEntity
  8
縦線
  6
Continuous
 62
     7
370
    18
100
AcDbLine
 10
576.9326525198938
 20
59.69218118607795
 30
0.0
 11
576.9326525198938
 21
61.35899598528232
 31
0.0
  0
LINE
  5
452
330
1F
100
AcDbEntity
  8
縦線
  6
Continuous
 62
     7
370
    18
100
AcDbLine
 10
576.9326525198938
 20
76.36032917812167
 30
0.0
 11
576.9326525198938
 21
78.02714397732605
 31
0.0
  0
LINE
  5
453
330
1F
100
AcDbEntity
  8
縦線
  6
Continuous
 62
     7
370
    18
100
AcDbLine
 10
576.9326525198938
 20
93.0284771701654
 30
0.0
 11
576.9326525198938
 21
94.69529196936979
 31
0.0
  0
LINE
  5
454
330
1F
100
AcDbEntity
  8
縦線
  6
Continuous
 62
     7
370
    18
100
AcDbLine
 10
576.9326525198938
 20
109.6966251622091
 30
0.0
 11
576.9326525198938
 21
111.3634399614135
 31
0.0
  0
LINE
  5
455
330
1F
100
AcDbEntity
  8
縦線
  6
Continuous
 62
     7
370
    18
100
AcDbLine
 10
576.9326525198938
 20
126.3647731542528
 30
0.0
 11
576.9326525198938
 21
128.0315879534572
 31
0.0
  0
LINE
  5
456
330
1F
100
AcDbEntity
  8
縦線
  6
Continuous
 62
     7
370
    18
100
AcDbLine
 10
576.9326525198938
 20
143.0329211462966
 30
0.0
 11
576.9326525198938
 21
144.6997359455009
 31
0.0
  0
LINE
  5
457
330
1F
100
AcDbEntity
  8
縦線
  6
Continuous
 62
     7
370
    13
100
AcDbLine
 10
596.9326525198938
 20
203.8510691383403
 30
0.0
 11
596.9326525198938
 21
164.7010691383403
 31
0.0
  0
LINE
  5
458
330
1F
100
AcDbEntity
  8
縦線
  6
Continuous
 62
     7
370
    18
100
AcDbLine
 10
596.9326525198938
 20
26.35588520199053
 30
0.0
 11
596.9326525198938
 21
28.02270000119489
 31
0.0
  0
LINE
  5
459
330
1F
100
AcDbEntity
  8
縦線
  6
Continuous
 62
     7
370
    18
100
AcDbLine
 10
596.9326525198938
 20
43.02403319403423
 30
0.0
 11
596.9326525198938
 21
44.69084799323861
 31
0.0
  0
LINE
  5
45A
330
1F
100
AcDbEntity
  8
縦線
  6
Continuous
 62
     7
370
    18
100
AcDbLine
 10
596.9326525198938
 20
59.69218118607795
 30
0.0
 11
596.9326525198938
 21
61.35899598528232
 31
0.0
  0
LINE
  5
45B
330
1F
100
AcDbEntity
  8
縦線
  6
Continuous
 62
     7
370
    18
100
AcDbLine
 10
596.9326525198938
 20
76.36032917812167
 30
0.0
 11
596.9326525198938
 21
78.02714397732605
 31
0.0
  0
LINE
  5
45C
330
1F
100
AcDbEntity
  8
縦線
  6
Continuous
 62
     7
370
    18
100
AcDbLine
 10
596.9326525198938
 20
93.0284771701654
 30
0.0
 11
596.9326525198938
 21
94.69529196936979
 31
0.0
  0
LINE
  5
45D
330
1F
100
AcDbEntity
  8
縦線
  6
Continuous
 62
     7
370
    18
100
AcDbLine
 10
596.9326525198938
 20
109.6966251622091
 30
0.0
 11
596.9326525198938
 21
111.3634399614135
 31
0.0
  0
LINE
  5
45E
330
1F
100
AcDbEntity
  8
縦線
  6
Continuous
 62
     7
370
    18
100
AcDbLine
 10
596.9326525198938
 20
126.3647731542528
 30
0.0
 11
596.9326525198938
 21
128.0315879534572
 31
0.0
  0
LINE
  5
45F
330
1F
100
AcDbEntity
  8
縦線
  6
Continuous
 62
     7
370
    18
100
AcDbLine
 10
596.9326525198938
 20
143.0329211462966
 30
0.0
 11
596.9326525198938
 21
144.6997359455009
 31
0.0
  0
LINE
  5
460
330
1F
100
AcDbEntity
  8
縦線
  6
Continuous
 62
     7
370
    13
100
AcDbLine
 10
616.9326525198938
 20
201.0010691383403
 30
0.0
 11
616.9326525198938
 21
164.7010691383403
 31
0.0
  0
LINE
  5
461
330
1F
100
AcDbEntity
  8
縦線
  6
Continuous
 62
     7
370
    18
100
AcDbLine
 10
616.9326525198938
 20
26.35588520199053
 30
0.0
 11
616.9326525198938
 21
28.02270000119489
 31
0.0
  0
LINE
  5
462
330
1F
100
AcDbEntity
  8
縦線
  6
Continuous
 62
     7
370
    18
100
AcDbLine
 10
616.9326525198938
 20
43.02403319403423
 30
0.0
 11
616.9326525198938
 21
44.69084799323861
 31
0.0
  0
LINE
  5
463
330
1F
100
AcDbEntity
  8
縦線
  6
Continuous
 62
     7
370
    18
100
AcDbLine
 10
616.9326525198938
 20
59.69218118607795
 30
0.0
 11
616.9326525198938
 21
61.35899598528232
 31
0.0
  0
LINE
  5
464
330
1F
100
AcDbEntity
  8
縦線
  6
Continuous
 62
     7
370
    18
100
AcDbLine
 10
616.9326525198938
 20
76.36032917812167
 30
0.0
 11
616.9326525198938
 21
78.02714397732605
 31
0.0
  0
LINE
  5
465
330
1F
100
AcDbEntity
  8
縦線
  6
Continuous
 62
     7
370
    18
100
AcDbLine
 10
616.9326525198938
 20
93.0284771701654
 30
0.0
 11
616.9326525198938
 21
94.69529196936979
 31
0.0
  0
LINE
  5
466
330
1F
100
AcDbEntity
  8
縦線
  6
Continuous
 62
     7
370
    18
100
AcDbLine
 10
616.9326525198938
 20
109.6966251622091
 30
0.0
 11
616.9326525198938
 21
111.3634399614135
 31
0.0
  0
LINE
  5
467
330
1F
100
AcDbEntity
  8
縦線
  6
Continuous
 62
     7
370
    18
100
AcDbLine
 10
616.9326525198938
 20
126.3647731542528
 30
0.0
 11
616.9326525198938
 21
128.0315879534572
 31
0.0
  0
LINE
  5
468
330
1F
100
AcDbEntity
  8
縦線
  6
Continuous
 62
     7
370
    18
100
AcDbLine
 10
616.9326525198938
 20
143.0329211462966
 30
0.0
 11
616.9326525198938
 21
144.6997359455009
 31
0.0
  0
LINE
  5
469
330
1F
100
AcDbEntity
  8
縦線
  6
Continuous
 62
     7
370
    13
100
AcDbLine
 10
636.9326525198938
 20
188.0310691383403
 30
0.0
 11
636.9326525198938
 21
164.7010691383403
 31
0.0
  0
LINE
  5
46A
330
1F
100
AcDbEntity
  8
縦線
  6
Continuous
 62
     7
370
    18
100
AcDbLine
 10
636.9326525198938
 20
26.35588520199053
 30
0.0
 11
636.9326525198938
 21
28.02270000119489
 31
0.0
  0
LINE
  5
46B
330
1F
100
AcDbEntity
  8
縦線
  6
Continuous
 62
     7
370
    18
100
AcDbLine
 10
636.9326525198938
 20
43.02403319403423
 30
0.0
 11
636.9326525198938
 21
44.69084799323861
 31
0.0
  0
LINE
  5
46C
330
1F
100
AcDbEntity
  8
縦線
  6
Continuous
 62
     7
370
    18
100
AcDbLine
 10
636.9326525198938
 20
59.69218118607795
 30
0.0
 11
636.9326525198938
 21
61.35899598528232
 31
0.0
  0
LINE
  5
46D
330
1F
100
AcDbEntity
  8
縦線
  6
Continuous
 62
     7
370
    18
100
AcDbLine
 10
636.9326525198938
 20
76.36032917812167
 30
0.0
 11
636.9326525198938
 21
78.02714397732605
 31
0.0
  0
LINE
  5
46E
330
1F
100
AcDbEntity
  8
縦線
  6
Continuous
 62
     7
370
    18
100
AcDbLine
 10
636.9326525198938
 20
93.0284771701654
 30
0.0
 11
636.9326525198938
 21
94.69529196936979
 31
0.0
  0
LINE
  5
46F
330
1F
100
AcDbEntity
  8
縦線
  6
Continuous
 62
     7
370
    18
100
AcDbLine
 10
636.9326525198938
 20
109.6966251622091
 30
0.0
 11
636.9326525198938
 21
111.3634399614135
 31
0.0
  0
LINE
  5
470
330
1F
100
AcDbEntity
  8
縦線
  6
Continuous
 62
     7
370
    18
100
AcDbLine
 10
636.9326525198938
 20
126.3647731542528
 30
0.0
 11
636.9326525198938
 21
128.0315879534572
 31
0.0
  0
LINE
  5
471
330
1F
100
AcDbEntity
  8
縦線
  6
Continuous
 62
     7
370
    18
100
AcDbLine
 10
636.9326525198938
 20
143.0329211462966
 30
0.0
 11
636.9326525198938
 21
144.6997359455009
 31
0.0
  0
LINE
  5
472
330
1F
100
AcDbEntity
  8
縦線
  6
Continuous
 62
     7
370
    13
100
AcDbLine
 10
656.9326525198938
 20
188.4310691383403
 30
0.0
 11
656.9326525198938
 21
164.7010691383403
 31
0.0
  0
LINE
  5
473
330
1F
100
AcDbEntity
  8
縦線
  6
Continuous
 62
     7
370
    18
100
AcDbLine
 10
656.9326525198938
 20
26.35588520199053
 30
0.0
 11
656.9326525198938
 21
28.02270000119489
 31
0.0
  0
LINE
  5
474
330
1F
100
AcDbEntity
  8
縦線
  6
Continuous
 62
     7
370
    18
100
AcDbLine
 10
656.9326525198938
 20
43.02403319403423
 30
0.0
 11
656.9326525198938
 21
44.69084799323861
 31
0.0
  0
LINE
  5
475
330
1F
100
AcDbEntity
  8
縦線
  6
Continuous
 62
     7
370
    18
100
AcDbLine
 10
656.9326525198938
 20
59.69218118607795
 30
0.0
 11
656.9326525198938
 21
61.35899598528232
 31
0.0
  0
LINE
  5
476
330
1F
100
AcDbEntity
  8
縦線
  6
Continuous
 62
     7
370
    18
100
AcDbLine
 10
656.9326525198938
 20
76.36032917812167
 30
0.0
 11
656.9326525198938
 21
78.02714397732605
 31
0.0
  0
LINE
  5
477
330
1F
100
AcDbEntity
  8
縦線
  6
Continuous
 62
     7
370
    18
100
AcDbLine
 10
656.9326525198938
 20
93.0284771701654
 30
0.0
 11
656.9326525198938
 21
94.69529196936979
 31
0.0
  0
LINE
  5
478
330
1F
100
AcDbEntity
  8
縦線
  6
Continuous
 62
     7
370
    18
100
AcDbLine
 10
656.9326525198938
 20
109.6966251622091
 30
0.0
 11
656.9326525198938
 21
111.3634399614135
 31
0.0
  0
LINE
  5
479
330
1F
100
AcDbEntity
  8
縦線
  6
Continuous
 62
     7
370
    18
100
AcDbLine
 10
656.9326525198938
 20
126.3647731542528
 30
0.0
 11
656.9326525198938
 21
128.0315879534572
 31
0.0
  0
LINE
  5
47A
330
1F
100
AcDbEntity
  8
縦線
  6
Continuous
 62
     7
370
    18
100
AcDbLine
 10
656.9326525198938
 20
143.0329211462966
 30
0.0
 11
656.9326525198938
 21
144.6997359455009
 31
0.0
  0
LINE
  5
47B
330
1F
100
AcDbEntity
  8
縦線
  6
Continuous
 62
     7
370
    13
100
AcDbLine
 10
676.9326525198938
 20
194.5010691383402
 30
0.0
 11
676.9326525198938
 21
164.7010691383403
 31
0.0
  0
LINE
  5
47C
330
1F
100
AcDbEntity
  8
縦線
  6
Continuous
 62
     7
370
    18
100
AcDbLine
 10
676.9326525198938
 20
26.35588520199053
 30
0.0
 11
676.9326525198938
 21
28.02270000119489
 31
0.0
  0
LINE
  5
47D
330
1F
100
AcDbEntity
  8
縦線
  6
Continuous
 62
     7
370
    18
100
AcDbLine
 10
676.9326525198938
 20
43.02403319403423
 30
0.0
 11
676.9326525198938
 21
44.69084799323861
 31
0.0
  0
LINE
  5
47E
330
1F
100
AcDbEntity
  8
縦線
  6
Continuous
 62
     7
370
    18
100
AcDbLine
 10
676.9326525198938
 20
59.69218118607795
 30
0.0
 11
676.9326525198938
 21
61.35899598528232
 31
0.0
  0
LINE
  5
47F
330
1F
100
AcDbEntity
  8
縦線
  6
Continuous
 62
     7
370
    18
100
AcDbLine
 10
676.9326525198938
 20
76.36032917812167
 30
0.0
 11
676.9326525198938
 21
78.02714397732605
 31
0.0
  0
LINE
  5
480
330
1F
100
AcDbEntity
  8
縦線
  6
Continuous
 62
     7
370
    18
100
AcDbLine
 10
676.9326525198938
 20
93.0284771701654
 30
0.0
 11
676.9326525198938
 21
94.69529196936979
 31
0.0
  0
LINE
  5
481
330
1F
100
AcDbEntity
  8
縦線
  6
Continuous
 62
     7
370
    18
100
AcDbLine
 10
676.9326525198938
 20
109.6966251622091
 30
0.0
 11
676.9326525198938
 21
111.3634399614135
 31
0.0
  0
LINE
  5
482
330
1F
100
AcDbEntity
  8
縦線
  6
Continuous
 62
     7
370
    18
100
AcDbLine
 10
676.9326525198938
 20
126.3647731542528
 30
0.0
 11
676.9326525198938
 21
128.0315879534572
 31
0.0
  0
LINE
  5
483
330
1F
100
AcDbEntity
  8
縦線
  6
Continuous
 62
     7
370
    18
100
AcDbLine
 10
676.9326525198938
 20
143.0329211462966
 30
0.0
 11
676.9326525198938
 21
144.6997359455009
 31
0.0
  0
LINE
  5
484
330
1F
100
AcDbEntity
  8
縦線
  6
Continuous
 62
     7
370
    13
100
AcDbLine
 10
696.9326525198938
 20
188.7510691383403
 30
0.0
 11
696.9326525198938
 21
164.7010691383403
 31
0.0
  0
LINE
  5
485
330
1F
100
AcDbEntity
  8
縦線
  6
Continuous
 62
     7
370
    18
100
AcDbLine
 10
696.9326525198938
 20
26.35588520199053
 30
0.0
 11
696.9326525198938
 21
28.02270000119489
 31
0.0
  0
LINE
  5
486
330
1F
100
AcDbEntity
  8
縦線
  6
Continuous
 62
     7
370
    18
100
AcDbLine
 10
696.9326525198938
 20
43.02403319403423
 30
0.0
 11
696.9326525198938
 21
44.69084799323861
 31
0.0
  0
LINE
  5
487
330
1F
100
AcDbEntity
  8
縦線
  6
Continuous
 62
     7
370
    18
100
AcDbLine
 10
696.9326525198938
 20
59.69218118607795
 30
0.0
 11
696.9326525198938
 21
61.35899598528232
 31
0.0
  0
LINE
  5
488
330
1F
100
AcDbEntity
  8
縦線
  6
Continuous
 62
     7
370
    18
100
AcDbLine
 10
696.9326525198938
 20
76.36032917812167
 30
0.0
 11
696.9326525198938
 21
78.02714397732605
 31
0.0
  0
LINE
  5
489
330
1F
100
AcDbEntity
  8
縦線
  6
Continuous
 62
     7
370
    18
100
AcDbLine
 10
696.9326525198938
 20
93.0284771701654
 30
0.0
 11
696.9326525198938
 21
94.69529196936979
 31
0.0
  0
LINE
  5
48A
330
1F
100
AcDbEntity
  8
縦線
  6
Continuous
 62
     7
370
    18
100
AcDbLine
 10
696.9326525198938
 20
109.6966251622091
 30
0.0
 11
696.9326525198938
 21
111.3634399614135
 31
0.0
  0
LINE
  5
48B
330
1F
100
AcDbEntity
  8
縦線
  6
Continuous
 62
     7
370
    18
100
AcDbLine
 10
696.9326525198938
 20
126.3647731542528
 30
0.0
 11
696.9326525198938
 21
128.0315879534572
 31
0.0
  0
LINE
  5
48C
330
1F
100
AcDbEntity
  8
縦線
  6
Continuous
 62
     7
370
    18
100
AcDbLine
 10
696.9326525198938
 20
143.0329211462966
 30
0.0
 11
696.9326525198938
 21
144.6997359455009
 31
0.0
  0
LINE
  5
48D
330
1F
100
AcDbEntity
  8
センター成果
  6
Continuous
 62
     7
370
    18
100
AcDbLine
 10
566.2526525198939
 20
188.9310691383403
 30
0.0
 11
571.216652519894
 21
189.4210691383403
 31
0.0
  0
LINE
  5
48E
330
1F
100
AcDbEntity
  8
センター成果
  6
Continuous
 62
     7
370
    18
100
AcDbLine
 10
571.216652519894
 20
189.4210691383403
 30
0.0
 11
575.4646525198939
 21
189.1310691383403
 31
0.0
  0
LINE
  5
48F
330
1F
100
AcDbEntity
  8
センター成果
  6
Continuous
 62
     7
370
    18
100
AcDbLine
 10
575.4646525198939
 20
189.1310691383403
 30
0.0
 11
576.4346525198939
 21
189.1010691383403
 31
0.0
  0
LINE
  5
490
330
1F
100
AcDbEntity
  8
センター成果
  6
Continuous
 62
     7
370
    18
100
AcDbLine
 10
576.4346525198939
 20
189.1010691383403
 30
0.0
 11
576.4786525198939
 21
190.5210691383403
 31
0.0
  0
LINE
  5
491
330
1F
100
AcDbEntity
  8
センター成果
  6
Continuous
 62
     7
370
    18
100
AcDbLine
 10
576.4786525198939
 20
190.5210691383403
 30
0.0
 11
576.9326525198938
 21
190.7610691383403
 31
0.0
  0
LINE
  5
492
330
1F
100
AcDbEntity
  8
センター成果
  6
Continuous
 62
     7
370
    18
100
AcDbLine
 10
576.9326525198938
 20
190.7610691383403
 30
0.0
 11
576.9946525198939
 21
190.8010691383403
 31
0.0
  0
LINE
  5
493
330
1F
100
AcDbEntity
  8
センター成果
  6
Continuous
 62
     7
370
    18
100
AcDbLine
 10
576.9946525198939
 20
190.8010691383403
 30
0.0
 11
576.9946525198939
 21
192.2510691383403
 31
0.0
  0
LINE
  5
494
330
1F
100
AcDbEntity
  8
センター成果
  6
Continuous
 62
     7
370
    18
100
AcDbLine
 10
576.9946525198939
 20
192.2510691383403
 30
0.0
 11
577.3946525198938
 21
192.2510691383403
 31
0.0
  0
LINE
  5
495
330
1F
100
AcDbEntity
  8
センター成果
  6
Continuous
 62
     7
370
    18
100
AcDbLine
 10
577.3946525198938
 20
192.2510691383403
 30
0.0
 11
577.3946525198938
 21
190.0510691383403
 31
0.0
  0
LINE
  5
496
330
1F
100
AcDbEntity
  8
センター成果
  6
Continuous
 62
     7
370
    18
100
AcDbLine
 10
577.3946525198938
 20
190.0510691383403
 30
0.0
 11
580.4546525198939
 21
191.5710691383403
 31
0.0
  0
LINE
  5
497
330
1F
100
AcDbEntity
  8
センター成果
  6
Continuous
 62
     7
370
    18
100
AcDbLine
 10
580.4546525198939
 20
191.5710691383403
 30
0.0
 11
584.360652519894
 21
202.0710691383403
 31
0.0
  0
LINE
  5
498
330
1F
100
AcDbEntity
  8
センター成果
  6
Continuous
 62
     7
370
    18
100
AcDbLine
 10
584.360652519894
 20
202.0710691383403
 30
0.0
 11
589.0946525198939
 21
203.4110691383403
 31
0.0
  0
LINE
  5
499
330
1F
100
AcDbEntity
  8
センター成果
  6
Continuous
 62
     7
370
    18
100
AcDbLine
 10
589.0946525198939
 20
203.4110691383403
 30
0.0
 11
596.9326525198938
 21
203.8510691383403
 31
0.0
  0
LINE
  5
49A
330
1F
100
AcDbEntity
  8
センター成果
  6
Continuous
 62
     7
370
    18
100
AcDbLine
 10
596.9326525198938
 20
203.8510691383403
 30
0.0
 11
599.2006531198921
 21
203.1380691443402
 31
0.0
  0
LINE
  5
49B
330
1F
100
AcDbEntity
  8
センター成果
  6
Continuous
 62
     7
370
    18
100
AcDbLine
 10
599.500652519894
 20
203.1410691383403
 30
0.0
 11
599.5106525198939
 21
202.1410691383403
 31
0.0
  0
LINE
  5
49C
330
1F
100
AcDbEntity
  8
センター成果
  6
Continuous
 62
     7
370
    18
100
AcDbLine
 10
599.5106525198939
 20
202.1410691383403
 30
0.0
 11
613.4926525198939
 21
200.7910691383403
 31
0.0
  0
LINE
  5
49D
330
1F
100
AcDbEntity
  8
センター成果
  6
Continuous
 62
     7
370
    18
100
AcDbLine
 10
613.4926525198939
 20
200.7910691383403
 30
0.0
 11
616.9326525198938
 21
201.0010691383403
 31
0.0
  0
LINE
  5
49E
330
1F
100
AcDbEntity
  8
センター成果
  6
Continuous
 62
     7
370
    18
100
AcDbLine
 10
616.9326525198938
 20
201.0010691383403
 30
0.0
 11
622.6486525198939
 21
200.9610691383403
 31
0.0
  0
LINE
  5
49F
330
1F
100
AcDbEntity
  8
センター成果
  6
Continuous
 62
     7
370
    18
100
AcDbLine
 10
622.6486525198939
 20
200.9610691383403
 30
0.0
 11
629.1946525198939
 21
200.0310691383403
 31
0.0
  0
LINE
  5
4A0
330
1F
100
AcDbEntity
  8
センター成果
  6
Continuous
 62
     7
370
    18
100
AcDbLine
 10
629.1946525198939
 20
200.0310691383403
 30
0.0
 11
629.1946525198939
 21
199.4110691383403
 31
0.0
  0
LINE
  5
4A1
330
1F
100
AcDbEntity
  8
センター成果
  6
Continuous
 62
     7
370
    18
100
AcDbLine
 10
629.1946525198939
 20
199.4110691383403
 30
0.0
 11
629.4866525198939
 21
199.4510691383403
 31
0.0
  0
LINE
  5
4A2
330
1F
100
AcDbEntity
  8
センター成果
  6
Continuous
 62
     7
370
    18
100
AcDbLine
 10
629.4866525198939
 20
199.4510691383403
 30
0.0
 11
629.4866525198939
 21
200.6710691383403
 31
0.0
  0
LINE
  5
4A3
330
1F
100
AcDbEntity
  8
センター成果
  6
Continuous
 62
     7
370
    18
100
AcDbLine
 10
629.4866525198939
 20
200.6710691383403
 30
0.0
 11
630.2766525198939
 21
200.6710691383403
 31
0.0
  0
LINE
  5
4A4
330
1F
100
AcDbEntity
  8
センター成果
  6
Continuous
 62
     7
370
    18
100
AcDbLine
 10
630.2766525198939
 20
200.6710691383403
 30
0.0
 11
630.2766525198939
 21
199.3210691383403
 31
0.0
  0
LINE
  5
4A5
330
1F
100
AcDbEntity
  8
センター成果
  6
Continuous
 62
     7
370
    18
100
AcDbLine
 10
630.2766525198939
 20
199.3210691383403
 30
0.0
 11
631.1146525198939
 21
199.3210691383403
 31
0.0
  0
LINE
  5
4A6
330
1F
100
AcDbEntity
  8
センター成果
  6
Continuous
 62
     7
370
    18
100
AcDbLine
 10
631.1146525198939
 20
199.3210691383403
 30
0.0
 11
631.1146525198939
 21
195.1510691383403
 31
0.0
  0
LINE
  5
4A7
330
1F
100
AcDbEntity
  8
センター成果
  6
Continuous
 62
     7
370
    18
100
AcDbLine
 10
631.1146525198939
 20
195.1510691383403
 30
0.0
 11
631.6986525198939
 21
195.0510691383403
 31
0.0
  0
LINE
  5
4A8
330
1F
100
AcDbEntity
  8
センター成果
  6
Continuous
 62
     7
370
    18
100
AcDbLine
 10
631.6986525198939
 20
195.0510691383403
 30
0.0
 11
631.6986525198939
 21
187.9310691383403
 31
0.0
  0
LINE
  5
4A9
330
1F
100
AcDbEntity
  8
センター成果
  6
USER_6
 62
     7
370
    18
100
AcDbLine
 10
631.6986525198939
 20
187.9310691383403
 30
0.0
 11
636.9326525198938
 21
188.0310691383403
 31
0.0
  0
LINE
  5
4AA
330
1F
100
AcDbEntity
  8
センター成果
  6
USER_6
 62
     7
370
    18
100
AcDbLine
 10
636.9326525198938
 20
188.0310691383403
 30
0.0
 11
656.9326525198938
 21
188.4310691383403
 31
0.0
  0
LINE
  5
4AB
330
1F
100
AcDbEntity
  8
センター成果
  6
USER_6
 62
     7
370
    18
100
AcDbLine
 10
656.9326525198938
 20
188.4310691383403
 30
0.0
 11
661.7326525198939
 21
188.5310691383403
 31
0.0
  0
LINE
  5
4AC
330
1F
100
AcDbEntity
  8
センター成果
  6
Continuous
 62
     7
370
    18
100
AcDbLine
 10
661.7326525198939
 20
188.5310691383403
 30
0.0
 11
661.7326525198939
 21
195.7510691383403
 31
0.0
  0
LINE
  5
4AD
330
1F
100
AcDbEntity
  8
センター成果
  6
Continuous
 62
     7
370
    18
100
AcDbLine
 10
661.7326525198939
 20
195.7510691383403
 30
0.0
 11
662.3306525198939
 21
195.9110691383403
 31
0.0
  0
LINE
  5
4AE
330
1F
100
AcDbEntity
  8
センター成果
  6
Continuous
 62
     7
370
    18
100
AcDbLine
 10
662.3306525198939
 20
195.9110691383403
 30
0.0
 11
662.3306525198939
 21
199.6910691383403
 31
0.0
  0
LINE
  5
4AF
330
1F
100
AcDbEntity
  8
センター成果
  6
Continuous
 62
     7
370
    18
100
AcDbLine
 10
662.3306525198939
 20
199.6910691383403
 30
0.0
 11
663.1306525198939
 21
199.6410691383403
 31
0.0
  0
LINE
  5
4B0
330
1F
100
AcDbEntity
  8
センター成果
  6
Continuous
 62
     7
370
    18
100
AcDbLine
 10
663.1306525198939
 20
199.6410691383403
 30
0.0
 11
663.1306525198939
 21
200.9710691383403
 31
0.0
  0
LINE
  5
4B1
330
1F
100
AcDbEntity
  8
センター成果
  6
Continuous
 62
     7
370
    18
100
AcDbLine
 10
663.1306525198939
 20
200.9710691383403
 30
0.0
 11
663.9306525198939
 21
201.0510691383403
 31
0.0
  0
LINE
  5
4B2
330
1F
100
AcDbEntity
  8
センター成果
  6
Continuous
 62
     7
370
    18
100
AcDbLine
 10
663.9306525198939
 20
201.0510691383403
 30
0.0
 11
663.9306525198939
 21
199.9810691383402
 31
0.0
  0
LINE
  5
4B3
330
1F
100
AcDbEntity
  8
センター成果
  6
Continuous
 62
     7
370
    18
100
AcDbLine
 10
663.9306525198939
 20
199.9810691383402
 30
0.0
 11
664.2446525198939
 21
199.8710691383403
 31
0.0
  0
LINE
  5
4B4
330
1F
100
AcDbEntity
  8
センター成果
  6
Continuous
 62
     7
370
    18
100
AcDbLine
 10
664.2446525198939
 20
199.8710691383403
 30
0.0
 11
664.2446525198939
 21
200.4610691383403
 31
0.0
  0
LINE
  5
4B5
330
1F
100
AcDbEntity
  8
センター成果
  6
Continuous
 62
     7
370
    18
100
AcDbLine
 10
664.2446525198939
 20
200.4610691383403
 30
0.0
 11
672.5906525198939
 21
202.3710691383403
 31
0.0
  0
LINE
  5
4B6
330
1F
100
AcDbEntity
  8
センター成果
  6
Continuous
 62
     7
370
    18
100
AcDbLine
 10
672.5906525198939
 20
202.3710691383403
 30
0.0
 11
672.6106525198938
 21
203.2610691383403
 31
0.0
  0
LWPOLYLINE
  5
4B7
330
1F
100
AcDbEntity
  8
センター成果
  6
Continuous
 62
     7
370
    18
100
AcDbPolyline
 90
        3
 70
   128
 43
0.0
 10
672.6106525198938
 20
203.2610691383403
 10
672.9106494900193
 20
203.2543276333936
 10
674.4746525198939
 20
202.7710691383403
  0
LINE
  5
4B8
330
1F
100
AcDbEntity
  8
センター成果
  6
Continuous
 62
     7
370
    18
100
AcDbLine
 10
674.4746525198939
 20
202.7710691383403
 30
0.0
 11
676.9326525198938
 21
194.5010691383403
 31
0.0
  0
LINE
  5
4B9
330
1F
100
AcDbEntity
  8
センター成果
  6
Continuous
 62
     7
370
    18
100
AcDbLine
 10
676.9326525198938
 20
194.5010691383403
 30
0.0
 11
677.6846525198939
 21
192.3910691383403
 31
0.0
  0
LINE
  5
4BA
330
1F
100
AcDbEntity
  8
センター成果
  6
Continuous
 62
     7
370
    18
100
AcDbLine
 10
677.6846525198939
 20
192.3910691383403
 30
0.0
 11
680.9326525198938
 21
190.7910691383402
 31
0.0
  0
LINE
  5
4BB
330
1F
100
AcDbEntity
  8
センター成果
  6
Continuous
 62
     7
370
    18
100
AcDbLine
 10
680.9326525198938
 20
190.7910691383402
 30
0.0
 11
680.9326525198938
 21
191.5910691383403
 31
0.0
  0
LINE
  5
4BC
330
1F
100
AcDbEntity
  8
センター成果
  6
Continuous
 62
     7
370
    18
100
AcDbLine
 10
680.9326525198938
 20
191.5910691383403
 30
0.0
 11
681.1326525198939
 21
191.5910691383403
 31
0.0
  0
LINE
  5
4BD
330
1F
100
AcDbEntity
  8
センター成果
  6
Continuous
 62
     7
370
    18
100
AcDbLine
 10
681.1326525198939
 20
191.5910691383403
 30
0.0
 11
681.3326525198939
 21
191.5910691383403
 31
0.0
  0
LINE
  5
4BE
330
1F
100
AcDbEntity
  8
センター成果
  6
Continuous
 62
     7
370
    18
100
AcDbLine
 10
681.3326525198939
 20
191.5910691383403
 30
0.0
 11
681.3326525198939
 21
191.8810691383403
 31
0.0
  0
LINE
  5
4BF
330
1F
100
AcDbEntity
  8
センター成果
  6
Continuous
 62
     7
370
    18
100
AcDbLine
 10
681.3326525198939
 20
191.8810691383403
 30
0.0
 11
684.2926525198939
 21
191.2610691383403
 31
0.0
  0
LINE
  5
4C0
330
1F
100
AcDbEntity
  8
センター成果
  6
Continuous
 62
     7
370
    18
100
AcDbLine
 10
684.2926525198939
 20
191.2610691383403
 30
0.0
 11
686.0586525198938
 21
190.0510691383403
 31
0.0
  0
LINE
  5
4C1
330
1F
100
AcDbEntity
  8
センター成果
  6
Continuous
 62
     7
370
    18
100
AcDbLine
 10
686.0586525198938
 20
190.0510691383403
 30
0.0
 11
686.3806525198939
 21
190.0510691383403
 31
0.0
  0
LINE
  5
4C2
330
1F
100
AcDbEntity
  8
センター成果
  6
Continuous
 62
     7
370
    18
100
AcDbLine
 10
686.3806525198939
 20
190.0510691383403
 30
0.0
 11
686.3806525198939
 21
189.5010691383403
 31
0.0
  0
LINE
  5
4C3
330
1F
100
AcDbEntity
  8
センター成果
  6
Continuous
 62
     7
370
    18
100
AcDbLine
 10
686.3806525198939
 20
189.5010691383403
 30
0.0
 11
690.6886525198939
 21
189.2510691383403
 31
0.0
  0
LINE
  5
4C4
330
1F
100
AcDbEntity
  8
センター成果
  6
Continuous
 62
     7
370
    18
100
AcDbLine
 10
690.6886525198939
 20
189.2510691383403
 30
0.0
 11
694.9686525198939
 21
188.7210691383403
 31
0.0
  0
LINE
  5
4C5
330
1F
100
AcDbEntity
  8
センター成果
  6
Continuous
 62
     7
370
    18
100
AcDbLine
 10
694.9686525198939
 20
188.7210691383403
 30
0.0
 11
696.9326525198938
 21
188.7510691383403
 31
0.0
  0
LINE
  5
4C6
330
1F
100
AcDbEntity
  8
センター成果
  6
Continuous
 62
     7
370
    18
100
AcDbLine
 10
696.9326525198938
 20
188.7510691383403
 30
0.0
 11
698.9326525198938
 21
189.1810691383403
 31
0.0
  0
LINE
  5
4C7
330
1F
100
AcDbEntity
  8
センター成果
  6
Continuous
 62
     7
370
    18
100
AcDbLine
 10
698.9326525198938
 20
189.1810691383403
 30
0.0
 11
710.9786525198939
 21
188.7710691383403
 31
0.0
  0
TEXT
  5
4C8
330
1F
100
AcDbEntity
  8
センター地盤高・垂直距離
  6
Continuous
 62
     7
370
    13
100
AcDbText
 10
577.8255069260242
 20
86.38276434112652
 30
0.0
 40
1.915708812260537
  1
2.61
 50
90.0
  7
ＭＳ ゴシック
 72
     2
 11
576.8676525198939
 21
91.36166237096101
 31
0.0
100
AcDbText
 73
     2
  0
TEXT
  5
4C9
330
1F
100
AcDbEntity
  8
センター地盤高・垂直距離
  6
Continuous
 62
     7
370
    13
100
AcDbText
 10
597.8255069260242
 20
86.38276434112652
 30
0.0
 40
1.915708812260537
  1
3.92
 50
90.0
  7
ＭＳ ゴシック
 72
     2
 11
596.8676525198939
 21
91.36166237096101
 31
0.0
100
AcDbText
 73
     2
  0
TEXT
  5
4CA
330
1F
100
AcDbEntity
  8
センター地盤高・垂直距離
  6
Continuous
 62
     7
370
    13
100
AcDbText
 10
617.8255069260242
 20
86.38276434112652
 30
0.0
 40
1.915708812260537
  1
3.63
 50
90.0
  7
ＭＳ ゴシック
 72
     2
 11
616.8676525198939
 21
91.36166237096101
 31
0.0
100
AcDbText
 73
     2
  0
TEXT
  5
4CB
330
1F
100
AcDbEntity
  8
センター地盤高・垂直距離
  6
Continuous
 62
     7
370
    13
100
AcDbText
 10
637.8255069260242
 20
86.38276434112652
 30
0.0
 40
1.915708812260537
  1
2.33
 50
90.0
  7
ＭＳ ゴシック
 72
     2
 11
636.8676525198939
 21
91.36166237096101
 31
0.0
100
AcDbText
 73
     2
  0
TEXT
  5
4CC
330
1F
100
AcDbEntity
  8
センター地盤高・垂直距離
  6
Continuous
 62
     7
370
    13
100
AcDbText
 10
657.8255069260242
 20
86.38276434112652
 30
0.0
 40
1.915708812260537
  1
2.37
 50
90.0
  7
ＭＳ ゴシック
 72
     2
 11
656.8676525198939
 21
91.36166237096101
 31
0.0
100
AcDbText
 73
     2
  0
TEXT
  5
4CD
330
1F
100
AcDbEntity
  8
センター地盤高・垂直距離
  6
Continuous
 62
     7
370
    13
100
AcDbText
 10
697.8255069260242
 20
86.38276434112652
 30
0.0
 40
1.915708812260537
  1
2.41
 50
90.0
  7
ＭＳ ゴシック
 72
     2
 11
696.8676525198939
 21
91.36166237096101
 31
0.0
100
AcDbText
 73
     2
  0
LINE
  5
4CE
330
1F
100
AcDbEntity
  8
作業ﾚｲﾔ1
  6
Continuous
 62
     7
370
    18
100
AcDbLine
 10
577.1946525198939
 20
192.2510691383403
 30
0.0
 11
577.1946525198939
 21
193.7510691383403
 31
0.0
  0
LINE
  5
4CF
330
1F
100
AcDbEntity
  8
作業ﾚｲﾔ1
  6
Continuous
 62
     7
370
    18
100
AcDbLine
 10
577.1946525198939
 20
194.1510691383403
 30
0.0
 11
577.1946525198939
 21
194.5510691383403
 31
0.0
  0
LINE
  5
4D0
330
1F
100
AcDbEntity
  8
作業ﾚｲﾔ1
  6
Continuous
 62
     7
370
    18
100
AcDbLine
 10
577.1946525198939
 20
194.9510691383403
 30
0.0
 11
577.1946525198939
 21
196.9510691383403
 31
0.0
  0
LINE
  5
4D1
330
1F
100
AcDbEntity
  8
作業ﾚｲﾔ1
  6
Continuous
 62
     7
370
    18
100
AcDbLine
 10
577.1946525198939
 20
197.3510691383403
 30
0.0
 11
577.1946525198939
 21
197.7510691383403
 31
0.0
  0
LINE
  5
4D2
330
1F
100
AcDbEntity
  8
作業ﾚｲﾔ1
  6
Continuous
 62
     7
370
    18
100
AcDbLine
 10
577.1946525198939
 20
198.1510691383403
 30
0.0
 11
577.1946525198939
 21
200.1510691383403
 31
0.0
  0
LINE
  5
4D3
330
1F
100
AcDbEntity
  8
作業ﾚｲﾔ1
  6
Continuous
 62
     7
370
    18
100
AcDbLine
 10
577.1946525198939
 20
200.5510691383403
 30
0.0
 11
577.1946525198939
 21
200.9510691383403
 31
0.0
  0
LINE
  5
4D4
330
1F
100
AcDbEntity
  8
作業ﾚｲﾔ1
  6
Continuous
 62
     7
370
    18
100
AcDbLine
 10
577.1946525198939
 20
201.3510691383403
 30
0.0
 11
577.1946525198939
 21
203.3510691383403
 31
0.0
  0
LINE
  5
4D5
330
1F
100
AcDbEntity
  8
作業ﾚｲﾔ1
  6
Continuous
 62
     7
370
    18
100
AcDbLine
 10
577.1946525198939
 20
203.7510691383403
 30
0.0
 11
577.1946525198939
 21
204.1510691383403
 31
0.0
  0
LINE
  5
4D6
330
1F
100
AcDbEntity
  8
作業ﾚｲﾔ1
  6
Continuous
 62
     7
370
    18
100
AcDbLine
 10
577.1946525198939
 20
204.5510691383404
 30
0.0
 11
577.1946525198939
 21
206.5510691383404
 31
0.0
  0
LINE
  5
4D7
330
1F
100
AcDbEntity
  8
作業ﾚｲﾔ1
  6
Continuous
 62
     7
370
    18
100
AcDbLine
 10
577.1946525198939
 20
206.9510691383404
 30
0.0
 11
577.1946525198939
 21
207.3510691383404
 31
0.0
  0
LINE
  5
4D8
330
1F
100
AcDbEntity
  8
作業ﾚｲﾔ1
  6
Continuous
 62
     7
370
    18
100
AcDbLine
 10
577.1946525198939
 20
207.7510691383404
 30
0.0
 11
577.1946525198939
 21
209.7510691383404
 31
0.0
  0
LINE
  5
4D9
330
1F
100
AcDbEntity
  8
作業ﾚｲﾔ1
  6
Continuous
 62
     7
370
    18
100
AcDbLine
 10
577.1946525198939
 20
210.1510691383404
 30
0.0
 11
577.1946525198939
 21
210.5510691383404
 31
0.0
  0
LINE
  5
4DA
330
1F
100
AcDbEntity
  8
作業ﾚｲﾔ1
  6
Continuous
 62
     7
370
    18
100
AcDbLine
 10
577.1946525198939
 20
210.9510691383404
 30
0.0
 11
577.1946525198939
 21
212.4510691383404
 31
0.0
  0
LINE
  5
4DB
330
1F
100
AcDbEntity
  8
作業ﾚｲﾔ1
  6
Continuous
 62
     7
370
    18
100
AcDbLine
 10
576.8946525198943
 20
212.4510691383403
 30
0.0
 11
577.4946525198935
 21
212.4510691383403
 31
0.0
  0
LINE
  5
4DC
330
1F
100
AcDbEntity
  8
作業ﾚｲﾔ1
  6
Continuous
 62
     7
370
    18
100
AcDbLine
 10
575.4646525198939
 20
189.1310691383403
 30
0.0
 11
575.4646525198939
 21
188.1310691383403
 31
0.0
  0
TEXT
  5
4DD
330
1F
100
AcDbEntity
  8
作業ﾚｲﾔ1
  6
Continuous
 62
     7
370
    13
100
AcDbText
 10
613.7701532207758
 20
197.6193529674204
 30
0.0
 40
1.915708812260537
  1
Co
  7
ＭＳ ゴシック
 72
     1
 11
615.0148777282344
 21
198.5772073735507
 31
0.0
100
AcDbText
 73
     2
  0
TEXT
  5
4DE
330
1F
100
AcDbEntity
  8
作業ﾚｲﾔ1
  6
Continuous
 62
     7
370
    13
100
AcDbText
 10
604.4360422059762
 20
194.9417129700229
 30
0.0
 40
1.915708812260537
  1
(Co上1㎝厚マット)
  7
ＭＳ ゴシック
 72
     1
 11
615.0162005193745
 21
195.8995673761532
 31
0.0
100
AcDbText
 73
     2
  0
LINE
  5
4DF
330
1F
100
AcDbEntity
  8
作業ﾚｲﾔ1
  6
Continuous
 62
     7
370
    18
100
AcDbLine
 10
681.1326525198939
 20
191.5910691383403
 30
0.0
 11
681.1326525198939
 21
193.2910691383402
 31
0.0
  0
LINE
  5
4E0
330
1F
100
AcDbEntity
  8
作業ﾚｲﾔ1
  6
Continuous
 62
     7
370
    18
100
AcDbLine
 10
681.1326525198939
 20
193.6910691383403
 30
0.0
 11
681.1326525198939
 21
194.0910691383403
 31
0.0
  0
LINE
  5
4E1
330
1F
100
AcDbEntity
  8
作業ﾚｲﾔ1
  6
Continuous
 62
     7
370
    18
100
AcDbLine
 10
681.1326525198939
 20
194.4910691383403
 30
0.0
 11
681.1326525198939
 21
196.4910691383403
 31
0.0
  0
LINE
  5
4E2
330
1F
100
AcDbEntity
  8
作業ﾚｲﾔ1
  6
Continuous
 62
     7
370
    18
100
AcDbLine
 10
681.1326525198939
 20
196.8910691383403
 30
0.0
 11
681.1326525198939
 21
197.2910691383403
 31
0.0
  0
LINE
  5
4E3
330
1F
100
AcDbEntity
  8
作業ﾚｲﾔ1
  6
Continuous
 62
     7
370
    18
100
AcDbLine
 10
681.1326525198939
 20
197.6910691383403
 30
0.0
 11
681.1326525198939
 21
199.6910691383403
 31
0.0
  0
LINE
  5
4E4
330
1F
100
AcDbEntity
  8
作業ﾚｲﾔ1
  6
Continuous
 62
     7
370
    18
100
AcDbLine
 10
681.1326525198939
 20
200.0910691383403
 30
0.0
 11
681.1326525198939
 21
200.4910691383403
 31
0.0
  0
LINE
  5
4E5
330
1F
100
AcDbEntity
  8
作業ﾚｲﾔ1
  6
Continuous
 62
     7
370
    18
100
AcDbLine
 10
681.1326525198939
 20
200.8910691383403
 30
0.0
 11
681.1326525198939
 21
202.8910691383403
 31
0.0
  0
LINE
  5
4E6
330
1F
100
AcDbEntity
  8
作業ﾚｲﾔ1
  6
Continuous
 62
     7
370
    18
100
AcDbLine
 10
681.1326525198939
 20
203.2910691383403
 30
0.0
 11
681.1326525198939
 21
203.6910691383403
 31
0.0
  0
LINE
  5
4E7
330
1F
100
AcDbEntity
  8
作業ﾚｲﾔ1
  6
Continuous
 62
     7
370
    18
100
AcDbLine
 10
681.1326525198939
 20
204.0910691383403
 30
0.0
 11
681.1326525198939
 21
206.0910691383403
 31
0.0
  0
LINE
  5
4E8
330
1F
100
AcDbEntity
  8
作業ﾚｲﾔ1
  6
Continuous
 62
     7
370
    18
100
AcDbLine
 10
681.1326525198939
 20
206.4910691383403
 30
0.0
 11
681.1326525198939
 21
206.8910691383403
 31
0.0
  0
LINE
  5
4E9
330
1F
100
AcDbEntity
  8
作業ﾚｲﾔ1
  6
Continuous
 62
     7
370
    18
100
AcDbLine
 10
681.1326525198939
 20
207.2910691383403
 30
0.0
 11
681.1326525198939
 21
209.2910691383403
 31
0.0
  0
LINE
  5
4EA
330
1F
100
AcDbEntity
  8
作業ﾚｲﾔ1
  6
Continuous
 62
     7
370
    18
100
AcDbLine
 10
681.1326525198939
 20
209.6910691383403
 30
0.0
 11
681.1326525198939
 21
210.0910691383403
 31
0.0
  0
LINE
  5
4EB
330
1F
100
AcDbEntity
  8
作業ﾚｲﾔ1
  6
Continuous
 62
     7
370
    18
100
AcDbLine
 10
681.1326525198939
 20
210.4910691383404
 30
0.0
 11
681.1326525198939
 21
212.1910691383403
 31
0.0
  0
LINE
  5
4EC
330
1F
100
AcDbEntity
  8
作業ﾚｲﾔ1
  6
Continuous
 62
     7
370
    18
100
AcDbLine
 10
680.8326525198944
 20
212.1910691383402
 30
0.0
 11
681.4326525198934
 21
212.1910691383402
 31
0.0
  0
LINE
  5
4ED
330
1F
100
AcDbEntity
  8
作業ﾚｲﾔ1
  6
Continuous
 62
     7
370
    18
100
AcDbLine
 10
681.3326525198939
 20
191.5910691383403
 30
0.0
 11
681.3326525198939
 21
190.7910691383402
 31
0.0
  0
LINE
  5
4EE
330
1F
100
AcDbEntity
  8
センター成果
  6
Continuous
 62
     7
370
    18
100
AcDbLine
 10
686.0586525198938
 20
190.0510691383403
 30
0.0
 11
686.0586525198938
 21
189.5010691383403
 31
0.0
  0
LINE
  5
4EF
330
1F
100
AcDbEntity
  8
センター成果
  6
Continuous
 62
     7
370
    18
100
AcDbLine
 10
672.8906494900193
 20
202.3643276333936
 30
0.0
 11
672.9106494900193
 21
203.2543276333936
 31
0.0
  0
TEXT
  5
4F0
330
1F
100
AcDbEntity
  8
作業ﾚｲﾔ1
  6
Continuous
 62
     7
370
    13
100
AcDbText
 10
584.1290929307632
 20
197.7420403366498
 30
0.0
 40
1.915708812260537
  1
g
  7
ＭＳ ゴシック
 72
     1
 11
584.7514551844926
 21
198.6998947427801
 31
0.0
100
AcDbText
 73
     2
  0
LINE
  5
4F1
330
1F
100
AcDbEntity
  8
作業ﾚｲﾔ1
  6
Continuous
 62
     7
370
    18
100
AcDbLine
 10
599.2006531198921
 20
203.1380691443402
 30
0.0
 11
599.500652519894
 21
203.1410691383403
 31
0.0
  0
TEXT
  5
4F2
330
1F
100
AcDbEntity
  8
作業ﾚｲﾔ1
  6
Continuous
 62
     7
370
    13
100
AcDbText
 10
569.7687211268518
 20
186.5618308850534
 30
0.0
 40
1.915708812260537
  1
As
  7
ＭＳ ゴシック
 72
     1
 11
571.0134456343104
 21
187.5196852911837
 31
0.0
100
AcDbText
 73
     2
  0
TEXT
  5
4F3
330
1F
100
AcDbEntity
  8
作業ﾚｲﾔ1
  6
Continuous
 62
     7
370
    13
100
AcDbText
 10
674.3146849690797
 20
196.5661347260911
 30
0.0
 40
1.915708812260537
  1
g
  7
ＭＳ ゴシック
 72
     1
 11
674.937047222809
 21
197.5239891322214
 31
0.0
100
AcDbText
 73
     2
  0
TEXT
  5
4F4
330
1F
100
AcDbEntity
  8
作業ﾚｲﾔ1
  6
Continuous
 62
     7
370
    13
100
AcDbText
 10
700.3293306606414
 20
185.9399550550038
 30
0.0
 40
1.915708812260537
  1
砂
  7
ＭＳ ゴシック
 72
     1
 11
701.5740551681
 21
186.8978094611341
 31
0.0
100
AcDbText
 73
     2
  0
TEXT
  5
4F5
330
1F
100
AcDbEntity
  8
作業ﾚｲﾔ1
  6
Continuous
 62
     7
370
    13
100
AcDbText
 10
683.1597628689115
 20
189.4848631498574
 30
0.0
 40
1.915708812260537
  1
g
  7
ＭＳ ゴシック
 72
     1
 11
683.7821251226408
 21
190.4427175559877
 31
0.0
100
AcDbText
 73
     2
  0
TEXT
  5
4F6
330
1F
100
AcDbEntity
  8
作業ﾚｲﾔ1
  6
Continuous
 62
     7
370
    13
100
AcDbText
 10
658.6712820705991
 20
212.9459759463612
 30
0.0
 40
1.915708812260537
  1
Co
  7
ＭＳ ゴシック
 72
     1
 11
659.9160065780577
 21
213.9038303524914
 31
0.0
100
AcDbText
 73
     2
  0
TEXT
  5
4F7
330
1F
100
AcDbEntity
  8
作業ﾚｲﾔ1
  6
Continuous
 62
     7
370
    13
100
AcDbText
 10
649.4539044034386
 20
210.2281722267937
 30
0.0
 40
1.915708812260537
  1
(Co上1㎝厚マット)
  7
ＭＳ ゴシック
 72
     1
 11
660.034062716837
 21
211.186026632924
 31
0.0
100
AcDbText
 73
     2
  0
LINE
  5
4F8
330
1F
100
AcDbEntity
  8
作業ﾚｲﾔ1
  6
Continuous
 62
     7
370
    13
100
AcDbLine
 10
662.0215584009817
 20
209.3939193290971
 30
0.0
 11
668.3111136968354
 21
201.3916875001853
 31
0.0
  0
LINE
  5
4F9
330
1F
100
AcDbEntity
  8
作業ﾚｲﾔ1
  6
Continuous
 62
     7
370
    13
100
AcDbLine
 10
668.3111136968354
 20
201.3916875001853
 30
0.0
 11
667.468326343841
 21
203.2730990653758
 31
0.0
  0
TEXT
  5
4FA
330
1F
100
AcDbEntity
  8
作業ﾚｲﾔ1
  6
Continuous
 62
     7
370
    13
100
AcDbText
 10
642.988478997518
 20
200.2261670200029
 30
0.0
 40
1.915708812260537
  1
プール
  7
ＭＳ ゴシック
 72
     1
 11
646.7226525198938
 21
201.1840214261331
 31
0.0
100
AcDbText
 73
     2
  0
TEXT
  5
4FB
330
1F
100
AcDbEntity
  8
センター地盤高・垂直距離
  6
Continuous
 62
     7
370
    13
100
AcDbText
 10
677.8255069260242
 20
86.38276434112652
 30
0.0
 40
1.915708812260537
  1
2.98
 50
90.0
  7
ＭＳ ゴシック
 72
     2
 11
676.8676525198939
 21
91.36166237096101
 31
0.0
100
AcDbText
 73
     2
  0
LINE
  5
500
330
1F
100
AcDbEntity
  8
作業ﾚｲﾔ1
  6
Continuous
 62
     7
370
    18
100
AcDbLine
 10
599.2006531198921
 20
203.1380691443402
 30
0.0
 11
599.2006531198921
 21
202.1380691443402
 31
0.0
  0
LINE
  5
501
330
1F
100
AcDbEntity
  8
作業ﾚｲﾔ1
  6
Continuous
 62
     7
370
    18
100
AcDbLine
 10
589.0946525198939
 20
203.4110691383403
 30
0.0
 11
589.0946525198939
 21
202.4110691383403
 31
0.0
  0
TEXT
  5
502
330
1F
100
AcDbEntity
  8
作業ﾚｲﾔ1
  6
Continuous
 62
     7
370
    13
100
AcDbText
 10
592.6390663425625
 20
194.5924675497304
 30
0.0
 40
1.915708812260537
  1
Co
  7
ＭＳ ゴシック
 72
     1
 11
593.8837908500211
 21
195.5503219558607
 31
0.0
100
AcDbText
 73
     2
  0
TEXT
  5
503
330
1F
100
AcDbEntity
  8
作業ﾚｲﾔ1
  6
Continuous
 62
     7
370
    13
100
AcDbText
 10
583.6009032121069
 20
191.8475666695274
 30
0.0
 40
1.915708812260537
  1
(Co上1㎝厚マット)
  7
ＭＳ ゴシック
 72
     1
 11
594.1810615255052
 21
192.8054210756577
 31
0.0
100
AcDbText
 73
     2
  0
LINE
  5
504
330
1F
100
AcDbEntity
  8
作業ﾚｲﾔ1
  6
Continuous
 62
     7
370
    18
100
AcDbLine
 10
593.8867548778057
 20
197.4335551559635
 30
0.0
 11
594.9020623554376
 21
202.5100925441229
 31
0.0
  0
LINE
  5
505
330
1F
100
AcDbEntity
  8
作業ﾚｲﾔ1
  6
Continuous
 62
     7
370
    18
100
AcDbLine
 10
594.9020623554376
 20
202.5100925441229
 30
0.0
 11
594.0195397473158
 21
200.6469892603101
 31
0.0
  0
LINE
  5
506
330
1F
100
AcDbEntity
  8
作業ﾚｲﾔ1
  6
Continuous
 62
     7
370
    18
100
AcDbLine
 10
631.1146525198939
 20
197.7910691383403
 30
0.0
 11
662.3306525198939
 21
197.7910691383403
 31
0.0
  0
LINE
  5
507
330
1F
100
AcDbEntity
  8
作業ﾚｲﾔ1
  6
Continuous
 62
     7
370
    18
100
AcDbLine
 10
646.7226525198938
 20
197.7910691383403
 30
0.0
 11
647.9226525199615
 21
199.4710691388216
 31
0.0
  0
LINE
  5
508
330
1F
100
AcDbEntity
  8
作業ﾚｲﾔ1
  6
Continuous
 62
     7
370
    18
100
AcDbLine
 10
647.9226525199615
 20
199.4710691388216
 30
0.0
 11
645.5226525199615
 21
199.4710691388216
 31
0.0
  0
LINE
  5
509
330
1F
100
AcDbEntity
  8
作業ﾚｲﾔ1
  6
Continuous
 62
     7
370
    18
100
AcDbLine
 10
645.5226525199615
 20
199.4710691388216
 30
0.0
 11
646.7226525198938
 21
197.7910691383403
 31
0.0
  0
LINE
  5
50A
330
1F
100
AcDbEntity
  8
作業ﾚｲﾔ1
  6
Continuous
 62
     7
370
    18
100
AcDbLine
 10
647.9226525199615
 20
197.3910691383403
 30
0.0
 11
645.5226525199615
 21
197.3910691383403
 31
0.0
  0
LINE
  5
50B
330
1F
100
AcDbEntity
  8
作業ﾚｲﾔ1
  6
Continuous
 62
     7
370
    18
100
AcDbLine
 10
647.3181141690633
 20
196.9910691383403
 30
0.0
 11
646.1271908707914
 21
196.9910691383403
 31
0.0
  0
LINE
  5
50C
330
1F
100
AcDbEntity
  8
作業ﾚｲﾔ1
  6
Continuous
 62
     7
370
    18
100
AcDbLine
 10
647.0323998834148
 20
196.5910691383403
 30
0.0
 11
646.4129051564079
 21
196.5910691383403
 31
0.0
  0
LINE
  5
50D
330
1F
100
AcDbEntity
  8
作業ﾚｲﾔ7
  6
Continuous
 62
     7
370
    35
100
AcDbLine
 10
810.0
 20
60.00000000000489
 30
0.0
 11
810.0
 21
0.0000000000000071
 31
0.0
  0
LINE
  5
50E
330
1F
100
AcDbEntity
  8
作業ﾚｲﾔ7
  6
Continuous
 62
     7
370
    35
100
AcDbLine
 10
900.0
 20
60.00000000000489
 30
0.0
 11
810.0
 21
60.00000000000489
 31
0.0
  0
TEXT
  5
50F
330
1F
100
AcDbEntity
  8
作業ﾚｲﾔ7
  6
Continuous
 62
     7
370
    18
100
AcDbText
 10
830.5243431197883
 20
9.079586208567164
 30
0.0
 40
2.084291187739464
  1
〒238-0004　横須賀市小川町28番地1-202
  7
ＭＳ ゴシック
 72
     1
 11
855.5781580059155
 21
10.1217318024369
 31
0.0
100
AcDbText
 73
     2
  0
TEXT
  5
510
330
1F
100
AcDbEntity
  8
作業ﾚｲﾔ7
  6
Continuous
 62
     7
370
    18
100
AcDbText
 10
825.7741580059155
 20
5.196728350837096
 30
0.0
 40
2.513409961685824
  1
有限会社
  7
ＭＳ ゴシック
 11
825.7741580059155
 21
4.737425007584864
 31
0.0
100
AcDbText
 73
     1
  0
TEXT
  5
511
330
1F
100
AcDbEntity
  8
作業ﾚｲﾔ7
  6
Continuous
 62
     7
370
    18
100
AcDbText
 10
852.7205869302015
 20
5.021071388648087
 30
0.0
 40
2.513409961685824
  1
オーヤマプランニング
  7
ＭＳ ゴシック
 72
     2
 11
885.3821580059158
 21
4.561768045395855
 31
0.0
100
AcDbText
 73
     1
  0
TEXT
  5
512
330
1F
100
AcDbEntity
  8
作業ﾚｲﾔ7
  6
Continuous
 62
     7
370
    18
100
AcDbText
 10
828.1743032497072
 20
1.557627486050653
 30
0.0
 40
1.96168582375479
  1
ＴＥＬ　050-3629-9812　　FAX　050-3629-9816
  7
ＭＳ ゴシック
 72
     1
 11
855.5781580059163
 21
2.538470397928048
 31
0.0
100
AcDbText
 73
     2
  0
LINE
  5
513
330
1F
100
AcDbEntity
  8
作業ﾚｲﾔ7
  6
Continuous
 62
     7
370
    35
100
AcDbLine
 10
900.0
 20
13.33333333333815
 30
0.0
 11
810.0
 21
13.33333333333815
 31
0.0
  0
LINE
  5
514
330
1F
100
AcDbEntity
  8
作業ﾚｲﾔ7
  6
Continuous
 62
     7
370
    35
100
AcDbLine
 10
900.0
 20
50.00000000000483
 30
0.0
 11
810.0
 21
50.00000000000483
 31
0.0
  0
LINE
  5
515
330
1F
100
AcDbEntity
  8
作業ﾚｲﾔ7
  6
Continuous
 62
     7
370
    35
100
AcDbLine
 10
900.0
 20
40.00000000000483
 30
0.0
 11
810.0
 21
40.00000000000483
 31
0.0
  0
LINE
  5
516
330
1F
100
AcDbEntity
  8
作業ﾚｲﾔ7
  6
Continuous
 62
     7
370
    35
100
AcDbLine
 10
900.0
 20
31.66666666667152
 30
0.0
 11
810.0
 21
31.66666666667152
 31
0.0
  0
LINE
  5
517
330
1F
100
AcDbEntity
  8
作業ﾚｲﾔ7
  6
Continuous
 62
     7
370
    35
100
AcDbLine
 10
900.0
 20
23.33333333333815
 30
0.0
 11
810.0
 21
23.33333333333815
 31
0.0
  0
LINE
  5
518
330
1F
100
AcDbEntity
  8
作業ﾚｲﾔ7
  6
Continuous
 62
     7
370
    35
100
AcDbLine
 10
830.0
 20
60.00000000000489
 30
0.0
 11
830.0
 21
13.33333333333815
 31
0.0
  0
LINE
  5
519
330
1F
100
AcDbEntity
  8
作業ﾚｲﾔ7
  6
Continuous
 62
     7
370
    35
100
AcDbLine
 10
850.0
 20
31.66666666667152
 30
0.0
 11
850.0
 21
13.33333333333815
 31
0.0
  0
LINE
  5
51A
330
1F
100
AcDbEntity
  8
作業ﾚｲﾔ7
  6
Continuous
 62
     7
370
    35
100
AcDbLine
 10
870.0
 20
31.66666666667152
 30
0.0
 11
870.0
 21
13.33333333333815
 31
0.0
  0
TEXT
  5
51B
330
1F
100
AcDbEntity
  8
作業ﾚｲﾔ7
  6
Continuous
 62
     7
370
    18
100
AcDbText
 10
811.3605234031166
 20
53.80717496537839
 30
0.0
 40
2.681992337164751
  1
業　務　名
  7
ＭＳ ゴシック
 72
     1
 11
820.073594955327
 21
55.14817113396077
 31
0.0
100
AcDbText
 73
     2
  0
TEXT
  5
51C
330
1F
100
AcDbEntity
  8
作業ﾚｲﾔ7
  6
Continuous
 62
     7
370
    18
100
AcDbText
 10
811.3605234031168
 20
43.80717496537839
 30
0.0
 40
2.681992337164751
  1
所　　　在
  7
ＭＳ ゴシック
 72
     1
 11
820.0735949553272
 21
45.14817113396077
 31
0.0
100
AcDbText
 73
     2
  0
TEXT
  5
51D
330
1F
100
AcDbEntity
  8
作業ﾚｲﾔ7
  6
Continuous
 62
     7
370
    18
100
AcDbText
 10
811.3934608610646
 20
34.88789912003578
 30
0.0
 40
2.681992337164751
  1
図　面　名
  7
ＭＳ ゴシック
 72
     1
 11
820.106532413275
 21
36.22889528861815
 31
0.0
100
AcDbText
 73
     2
  0
TEXT
  5
51E
330
1F
100
AcDbEntity
  8
作業ﾚｲﾔ7
  6
Continuous
 62
     7
370
    18
100
AcDbText
 10
816.6213037923908
 20
26.55456578670247
 30
0.0
 40
2.681992337164751
  1
縮尺
  7
ＭＳ ゴシック
 72
     1
 11
820.106532413275
 21
27.89556195528485
 31
0.0
100
AcDbText
 73
     2
  0
TEXT
  5
51F
330
1F
100
AcDbEntity
  8
作業ﾚｲﾔ7
  6
Continuous
 62
     7
370
    18
100
AcDbText
 10
814.845752024001
 20
17.14050829871171
 30
0.0
 40
2.681992337164751
  1
作成者
  7
ＭＳ ゴシック
 72
     1
 11
820.0735949553272
 21
18.48150446729409
 31
0.0
100
AcDbText
 73
     2
  0
TEXT
  5
520
330
1F
100
AcDbEntity
  8
作業ﾚｲﾔ7
  6
Continuous
 62
     7
370
    18
100
AcDbText
 10
853.1031377135589
 20
19.62550454337212
 30
0.0
 40
2.681992337164751
  1
資格登録
  7
ＭＳ ゴシック
 72
     1
 11
860.0735949553272
 21
20.9665007119545
 31
0.0
100
AcDbText
 73
     2
  0
TEXT
  5
521
330
1F
100
AcDbEntity
  8
作業ﾚｲﾔ7
  6
Continuous
 62
     7
370
    18
100
AcDbText
 10
856.588366334443
 20
14.61901093527307
 30
0.0
 40
2.681992337164751
  1
番号
  7
ＭＳ ゴシック
 72
     1
 11
860.0735949553272
 21
15.96000710385544
 31
0.0
100
AcDbText
 73
     2
  0
TEXT
  5
522
330
1F
100
AcDbEntity
  8
作業ﾚｲﾔ7
  6
Continuous
 62
     7
370
    18
100
AcDbText
 10
851.9369506363851
 20
34.88789912003583
 30
0.0
 40
2.681992337164751
  1
縦 断 図(BNO)
  7
ＭＳ ゴシック
 72
     1
 11
863.2639436542586
 21
36.22889528861821
 31
0.0
100
AcDbText
 73
     2
  0
TEXT
  5
523
330
1F
100
AcDbEntity
  8
作業ﾚｲﾔ7
  6
Continuous
 62
     7
370
    18
100
AcDbText
 10
833.9008499134527
 20
27.99361027481667
 30
0.0
 40
2.681992337164751
  1
V=1/100
  7
ＭＳ ゴシック
 72
     1
 11
840.0
 21
27.50350000000484
 31
0.0
100
AcDbText
 73
     1
  0
TEXT
  5
524
330
1F
100
AcDbEntity
  8
作業ﾚｲﾔ7
  6
Continuous
 62
     7
370
    18
100
AcDbText
 10
831.3605234031171
 20
17.14050829871177
 30
0.0
 40
2.681992337164751
  1
小野口翔也
  7
ＭＳ ゴシック
 72
     1
 11
840.0735949553275
 21
18.48150446729414
 31
0.0
100
AcDbText
 73
     2
  0
TEXT
  5
525
330
1F
100
AcDbEntity
  8
作業ﾚｲﾔ7
  6
Continuous
 62
     7
370
    18
100
AcDbText
 10
878.9008499134527
 20
15.3363409961734
 30
0.0
 40
2.681992337164751
  1
H21-240
  7
ＭＳ ゴシック
 72
     1
 11
885.0
 21
18.01833333333815
 31
0.0
100
AcDbText
 73
     3
  0
TEXT
  5
526
330
1F
100
AcDbEntity
  8
作業ﾚｲﾔ7
  6
Continuous
 62
     7
370
    18
100
AcDbText
 10
873.6730069821265
 20
26.25000383142246
 30
0.0
 40
2.681992337164751
  1
令和4年3月3日
  7
ＭＳ ゴシック
 72
     1
 11
885.0
 21
27.59100000000484
 31
0.0
100
AcDbText
 73
     2
  0
TEXT
  5
527
330
1F
100
AcDbEntity
  8
作業ﾚｲﾔ7
  6
Continuous
 62
     7
370
    18
100
AcDbText
 10
851.2869284477896
 20
26.25000383142246
 30
0.0
 40
2.681992337164751
  1
作成年月日
  7
ＭＳ ゴシック
 72
     1
 11
860.0
 21
27.59100000000484
 31
0.0
100
AcDbText
 73
     2
  0
TEXT
  5
528
330
1F
100
AcDbEntity
  8
作業ﾚｲﾔ7
  6
Continuous
 62
     7
370
    18
100
AcDbText
 10
872.75
 20
18.82694360814999
 30
0.0
 40
2.681992337164751
  1
測量士
  7
ＭＳ ゴシック
 11
872.75
 21
18.33683333333815
 31
0.0
100
AcDbText
 73
     1
  0
TEXT
  5
529
330
1F
100
AcDbEntity
  8
作業ﾚｲﾔ7
  6
Continuous
 62
     7
370
    18
100
AcDbText
 10
833.9008499134527
 20
24.50300766284009
 30
0.0
 40
2.681992337164751
  1
H=1/500
  7
ＭＳ ゴシック
 72
     1
 11
840.0
 21
27.18500000000484
 31
0.0
100
AcDbText
 73
     3
  0
TEXT
  5
52A
330
1F
100
AcDbEntity
  8
作業ﾚｲﾔ7
  6
Continuous
 62
     7
370
    18
100
AcDbText
 10
842.455651127767
 20
43.80717496537839
 30
0.0
 40
2.681992337164751
  1
横須賀市久里浜6丁目642番6
  7
ＭＳ ゴシック
 72
     1
 11
864.2383300082929
 21
45.14817113396077
 31
0.0
100
AcDbText
 73
     2
  0
TEXT
  5
52B
330
1F
100
AcDbEntity
  8
作業ﾚｲﾔ7
  6
Continuous
 62
     7
370
    13
100
AcDbText
 10
848.7278417673979
 20
54.11008184837343
 30
0.0
 40
2.681992337164751
  1
久里浜公園測量業務
  7
ＭＳ ゴシック
 72
     1
 11
864.4113705613765
 21
55.45107801695581
 31
0.0
100
AcDbText
 73
     2
  0
TEXT
  5
52C
330
1F
100
AcDbEntity
  8
ＤＬ_目盛_スケールマーク
  6
Continuous
 62
     7
370
    13
100
AcDbText
 10
532.5184789975181
 20
172.0158659899695
 30
0.0
 40
1.915708812260537
  1
1：500
  7
ＭＳ ゴシック
 72
     1
 11
536.2526525198939
 21
173.93157480223
 31
0.0
100
AcDbText
 73
     3
  0
TEXT
  5
52D
330
1F
100
AcDbEntity
  8
ＤＬ_目盛_スケールマーク
  6
Continuous
 62
     7
370
    13
100
AcDbText
 10
540.9608025804728
 20
180.9510691383403
 30
0.0
 40
1.915708812260537
  1
1：100
 50
90.0
  7
ＭＳ ゴシック
 11
541.3108813481955
 21
180.9510691383403
 31
0.0
100
AcDbText
 73
     1
  0
LINE
  5
52E
330
1F
100
AcDbEntity
  8
作業ﾚｲﾔ1
  6
Continuous
 62
     7
370
    13
100
AcDbLine
 10
681.2302370408623
 20
190.4969194784096
 30
0.0
 11
682.5374842958021
 21
185.2705859231849
 31
0.0
  0
LINE
  5
52F
330
1F
100
AcDbEntity
  8
作業ﾚｲﾔ1
  6
Continuous
 62
     7
370
    13
100
AcDbLine
 10
681.2302370408623
 20
190.4969194784096
 30
0.0
 11
682.2005969935182
 21
188.678018282005
 31
0.0
  0
TEXT
  5
530
330
1F
100
AcDbEntity
  8
作業ﾚｲﾔ1
  6
Continuous
 62
     7
370
    13
100
AcDbText
 10
681.7361835193323
 20
182.971262566962
 30
0.0
 40
1.915708812260537
  1
RC
  7
ＭＳ ゴシック
 72
     1
 11
682.9809080267909
 21
183.9291169730923
 31
0.0
100
AcDbText
 73
     2
  0
LINE
  5
531
330
1F
100
AcDbEntity
  8
作業ﾚｲﾔ1
  6
Continuous
 62
     7
370
    13
100
AcDbLine
 10
686.3187884560554
 20
189.1379138281719
 30
0.0
 11
687.0858785624961
 21
185.5597191243475
 31
0.0
  0
LINE
  5
532
330
1F
100
AcDbEntity
  8
作業ﾚｲﾔ1
  6
Continuous
 62
     7
370
    13
100
AcDbLine
 10
686.3187884560554
 20
189.1379138281719
 30
0.0
 11
687.2269130610298
 21
187.2871546050853
 31
0.0
  0
TEXT
  5
533
330
1F
100
AcDbEntity
  8
作業ﾚｲﾔ1
  6
Continuous
 62
     7
370
    13
100
AcDbText
 10
686.333923295255
 20
182.971262566962
 30
0.0
 40
1.915708812260537
  1
縁石
  7
ＭＳ ゴシック
 72
     1
 11
688.8233723101722
 21
183.9291169730923
 31
0.0
100
AcDbText
 73
     2
  0
LINE
  5
534
330
1F
100
AcDbEntity
  8
作業ﾚｲﾔ1
  6
Continuous
 62
     7
370
    13
100
AcDbLine
 10
672.6754783755466
 20
202.1897504413768
 30
0.0
 11
671.4919990692471
 21
197.8266401997957
 31
0.0
  0
LINE
  5
535
330
1F
100
AcDbEntity
  8
作業ﾚｲﾔ1
  6
Continuous
 62
     7
370
    13
100
AcDbLine
 10
672.6754783755466
 20
202.1897504413768
 30
0.0
 11
671.6693412510302
 21
200.3903927541256
 31
0.0
  0
TEXT
  5
536
330
1F
100
AcDbEntity
  8
作業ﾚｲﾔ1
  6
Continuous
 62
     7
370
    13
100
AcDbText
 10
667.97167652522
 20
195.1208995051765
 30
0.0
 40
1.915708812260537
  1
縁石
  7
ＭＳ ゴシック
 72
     1
 11
670.4611255401372
 21
196.0787539113068
 31
0.0
100
AcDbText
 73
     2
  0
LINE
  5
537
330
1F
100
AcDbEntity
  8
作業ﾚｲﾔ1
  6
Continuous
 62
     7
370
    13
100
AcDbLine
 10
599.963493588926
 20
202.9375766437751
 30
0.0
 11
602.8566047853296
 21
205.125896502494
 31
0.0
  0
LINE
  5
538
330
1F
100
AcDbEntity
  8
作業ﾚｲﾔ1
  6
Continuous
 62
     7
370
    13
100
AcDbLine
 10
599.963493588926
 20
202.9375766437751
 30
0.0
 11
601.2569596701669
 21
204.5428633772527
 31
0.0
  0
TEXT
  5
539
330
1F
100
AcDbEntity
  8
作業ﾚｲﾔ1
  6
Continuous
 62
     7
370
    13
100
AcDbText
 10
603.1712478946914
 20
205.1170331209456
 30
0.0
 40
1.915708812260537
  1
縁石
  7
ＭＳ ゴシック
 72
     1
 11
605.6606969096086
 21
206.0748875270759
 31
0.0
100
AcDbText
 73
     2
  0
LINE
  5
53A
330
1F
100
AcDbEntity
  8
作業ﾚｲﾔ1
  6
Continuous
 62
     7
370
    13
100
AcDbLine
 10
577.3299500430448
 20
189.662802726226
 30
0.0
 11
578.7064309782705
 21
185.8358909051075
 31
0.0
  0
LINE
  5
53B
330
1F
100
AcDbEntity
  8
作業ﾚｲﾔ1
  6
Continuous
 62
     7
370
    13
100
AcDbLine
 10
577.3299500430448
 20
189.662802726226
 30
0.0
 11
578.4773543388675
 21
187.9500670834814
 31
0.0
  0
TEXT
  5
53C
330
1F
100
AcDbEntity
  8
作業ﾚｲﾔ1
  6
Continuous
 62
     7
370
    13
100
AcDbText
 10
578.5032599920833
 20
183.4132547646099
 30
0.0
 40
1.915708812260537
  1
RC
  7
ＭＳ ゴシック
 72
     1
 11
579.7479844995419
 21
184.3711091707402
 31
0.0
100
AcDbText
 73
     2
  0
LWPOLYLINE
  5
53D
330
1F
100
AcDbEntity
  8
作業ﾚｲﾔ7
  6
Continuous
 62
     7
370
    50
100
AcDbPolyline
 90
        4
 70
     1
 43
0.0
 10
900.0
 20
0.0000000000000036
 10
900.0
 20
277.0
 10
500.0
 20
277.0
 10
500.0
 20
0.0
  0
ENDSEC
  0
SECTION
  2
OBJECTS
  0
DICTIONARY
  5
C
330
0
100
AcDbDictionary
281
     1
  3
ACAD_DETAILVIEWSTYLE
350
53F
  3
ACAD_DGNDEFINITIONS
350
23A
  3
ACAD_DWFDEFINITIONS
350
239
  3
ACAD_GROUP
350
D
  3
ACAD_LAYOUT
350
1A
  3
ACAD_MATERIAL
350
43
  3
ACAD_MLEADERSTYLE
350
6B
  3
ACAD_MLINESTYLE
350
17
  3
ACAD_PDFDEFINITIONS
350
238
  3
ACAD_PLOTSETTINGS
350
19
  3
ACAD_PLOTSTYLENAME
350
E
  3
ACAD_SCALELIST
350
47
  3
ACAD_SECTIONVIEWSTYLE
350
540
  3
ACAD_TABLESTYLE
350
69
  3
ACAD_VISUALSTYLE
350
2A
  3
ACDB_RECOMPOSE_DATA
350
543
  3
AcDbVariableDictionary
350
1CF
  0
SUN
  5
6D
330
29
100
AcDbSun
 90
        1
290
     0
 63
     7
 40
1.0
291
     1
 91
  2455826
 92
 54000000
292
     0
 70
     2
 71
   256
280
     1
  0
DICTIONARY
  5
53F
102
{ACAD_REACTORS
330
C
102
}
330
C
100
AcDbDictionary
281
     1
  0
DICTIONARY
  5
23A
102
{ACAD_REACTORS
330
C
102
}
330
C
100
AcDbDictionary
281
     1
  0
DICTIONARY
  5
239
102
{ACAD_REACTORS
330
C
102
}
330
C
100
AcDbDictionary
281
     1
  0
DICTIONARY
  5
D
102
{ACAD_REACTORS
330
C
102
}
330
C
100
AcDbDictionary
281
     1
  0
DICTIONARY
  5
1A
102
{ACAD_REACTORS
330
C
102
}
330
C
100
AcDbDictionary
281
     1
  3
Layout1
350
1E
  3
Layout2
350
26
  3
Model
350
22
  0
DICTIONARY
  5
43
102
{ACAD_REACTORS
330
C
102
}
330
C
100
AcDbDictionary
281
     1
  3
ByBlock
350
45
  3
ByLayer
350
44
  3
Global
350
46
  0
DICTIONARY
  5
6B
102
{ACAD_REACTORS
330
C
102
}
330
C
100
AcDbDictionary
281
     1
  3
Standard
350
6C
  0
DICTIONARY
  5
17
102
{ACAD_REACTORS
330
C
102
}
330
C
100
AcDbDictionary
281
     1
  3
Standard
350
18
  0
DICTIONARY
  5
238
102
{ACAD_REACTORS
330
C
102
}
330
C
100
AcDbDictionary
281
     1
  0
DICTIONARY
  5
19
102
{ACAD_REACTORS
330
C
102
}
330
C
100
AcDbDictionary
281
     1
  0
ACDBDICTIONARYWDFLT
  5
E
102
{ACAD_REACTORS
330
C
102
}
330
C
100
AcDbDictionary
281
     1
  3
Normal
350
F
100
AcDbDictionaryWithDefault
340
F
  0
DICTIONARY
  5
47
102
{ACAD_REACTORS
330
C
102
}
330
C
100
AcDbDictionary
281
     1
  3
A0
350
48
  3
A1
350
49
  3
A2
350
4A
  3
A3
350
4B
  3
A4
350
4C
  3
A5
350
4D
  3
A6
350
4E
  3
A7
350
4F
  3
A8
350
50
  3
A9
350
51
  3
B0
350
52
  3
B1
350
53
  3
B2
350
54
  3
B3
350
55
  3
B4
350
56
  3
B5
350
57
  3
B6
350
58
  3
B7
350
59
  3
B8
350
5A
  3
B9
350
5B
  3
C0
350
5C
  3
C1
350
5D
  3
C2
350
5E
  3
C3
350
5F
  3
C4
350
60
  3
C5
350
61
  3
C6
350
62
  3
C7
350
63
  3
C8
350
64
  3
C9
350
65
  3
D0
350
66
  3
D1
350
67
  3
D2
350
68
  0
DICTIONARY
  5
540
102
{ACAD_REACTORS
330
C
102
}
330
C
100
AcDbDictionary
281
     1
  0
DICTIONARY
  5
69
102
{ACAD_REACTORS
330
C
102
}
330
C
100
AcDbDictionary
281
     1
  3
Standard
350
6A
  0
DICTIONARY
  5
2A
102
{ACAD_REACTORS
330
C
102
}
330
C
100
AcDbDictionary
281
     1
  3
2dWireframe
350
2F
  3
Basic
350
32
  3
Brighten
350
36
  3
ColorChange
350
3A
  3
Conceptual
350
34
  3
Dim
350
35
  3
EdgeColorOff
350
3D
  3
Facepattern
350
39
  3
Flat
350
2B
  3
FlatWithEdges
350
2C
  3
Gouraud
350
2D
  3
GouraudWithEdges
350
2E
  3
Hidden
350
31
  3
JitterOff
350
3B
  3
Linepattern
350
38
  3
OverhangOff
350
3C
  3
Realistic
350
33
  3
Shaded
350
42
  3
Shaded with edges
350
41
  3
Shades of Gray
350
3E
  3
Sketchy
350
3F
  3
Thicken
350
37
  3
Wireframe
350
30
  3
X-Ray
350
40
  0
XRECORD
  5
543
102
{ACAD_REACTORS
330
C
102
}
330
C
100
AcDbXrecord
280
     1
 90
        1
330
6A
  0
DICTIONARY
  5
1CF
102
{ACAD_REACTORS
330
C
102
}
330
C
100
AcDbDictionary
281
     1
  3
CANNOSCALE
350
53E
  3
CMLEADERSTYLE
350
1D1
  3
CTABLESTYLE
350
1D0
  3
DIMASSOC
350
1D4
  3
HIDETEXT
350
1D5
  3
MSLTSCALE
350
1F9
  0
LAYOUT
  5
1E
102
{ACAD_REACTORS
330
1A
102
}
330
1A
100
AcDbPlotSettings
  1

  2
none_device
  4

  6

 40
0.0
 41
0.0
 42
0.0
 43
0.0
 44
0.0
 45
0.0
 46
0.0
 47
0.0
 48
0.0
 49
0.0
140
0.0
141
0.0
142
1.0
143
1.0
 70
   688
 72
     0
 73
     0
 74
     5
  7

 75
    16
 76
     0
 77
     2
 78
   300
147
1.0
148
0.0
149
0.0
100
AcDbLayout
  1
Layout1
 70
     1
 71
     1
 10
0.0
 20
0.0
 11
12.0
 21
9.0
 12
0.0
 22
0.0
 32
0.0
 14
1.000000000000000E+20
 24
1.000000000000000E+20
 34
1.000000000000000E+20
 15
-1.000000000000000E+20
 25
-1.000000000000000E+20
 35
-1.000000000000000E+20
146
0.0
 13
0.0
 23
0.0
 33
0.0
 16
1.0
 26
0.0
 36
0.0
 17
0.0
 27
1.0
 37
0.0
 76
     0
330
1B
  0
LAYOUT
  5
26
102
{ACAD_REACTORS
330
1A
102
}
330
1A
100
AcDbPlotSettings
  1

  2
none_device
  4

  6

 40
0.0
 41
0.0
 42
0.0
 43
0.0
 44
0.0
 45
0.0
 46
0.0
 47
0.0
 48
0.0
 49
0.0
140
0.0
141
0.0
142
1.0
143
1.0
 70
   688
 72
     0
 73
     0
 74
     5
  7

 75
    16
 76
     0
 77
     2
 78
   300
147
1.0
148
0.0
149
0.0
100
AcDbLayout
  1
Layout2
 70
     1
 71
     2
 10
0.0
 20
0.0
 11
0.0
 21
0.0
 12
0.0
 22
0.0
 32
0.0
 14
0.0
 24
0.0
 34
0.0
 15
0.0
 25
0.0
 35
0.0
146
0.0
 13
0.0
 23
0.0
 33
0.0
 16
1.0
 26
0.0
 36
0.0
 17
0.0
 27
1.0
 37
0.0
 76
     0
330
23
  0
LAYOUT
  5
22
102
{ACAD_REACTORS
330
1A
102
}
330
1A
100
AcDbPlotSettings
  1

  2
none_device
  4
Letter_(8.50_x_11.00_Inches)
  6

 40
6.35
 41
6.35
 42
6.35000508
 43
6.35000508
 44
215.9
 45
279.4
 46
0.0
 47
0.0
 48
0.0
 49
0.0
140
0.0
141
0.0
142
1.0
143
1.0
 70
  1712
 72
     0
 73
     0
 74
     0
  7

 75
     0
 76
     0
 77
     2
 78
   300
147
1.0
148
0.0
149
0.0
100
AcDbLayout
  1
Model
 70
     1
 71
     0
 10
0.0
 20
0.0
 11
400.0
 21
277.0
 12
0.0
 22
0.0
 32
0.0
 14
0.0
 24
0.0
 34
0.0
 15
900.0
 25
277.0
 35
0.0
146
0.0
 13
0.0
 23
0.0
 33
0.0
 16
1.0
 26
0.0
 36
0.0
 17
0.0
 27
1.0
 37
0.0
 76
     0
330
1F
331
29
  0
MATERIAL
  5
45
102
{ACAD_REACTORS
330
43
102
}
330
43
100
AcDbMaterial
  1
ByBlock
 72
     1
 94
      127
  0
MATERIAL
  5
44
102
{ACAD_REACTORS
330
43
102
}
330
43
100
AcDbMaterial
  1
ByLayer
 72
     1
 94
      127
  0
MATERIAL
  5
46
102
{ACAD_REACTORS
330
43
102
}
330
43
100
AcDbMaterial
  1
Global
 72
     1
 94
      127
  0
MLEADERSTYLE
  5
6C
102
{ACAD_REACTORS
330
6B
102
}
330
6B
100
AcDbMLeaderStyle
179
     2
170
     2
171
     1
172
     0
 90
        2
 40
0.0
 41
0.0
173
     1
 91
-1056964608
340
14
 92
       -2
290
     1
 42
0.09
291
     1
 43
0.36
  3
Standard
341
0
 44
0.18
300

342
11
174
     1
178
     6
175
     1
176
     0
 93
-1056964608
 45
0.18
292
     0
297
     0
 46
0.18
343
0
 94
-1056964608
 47
1.0
 49
1.0
140
1.0
293
     1
141
0.0
294
     1
177
     0
142
1.0
295
     0
296
     0
143
0.125
271
     0
272
     9
273
     9
298
     0
1001
ACAD_MLEADERVER
1070
     2
  0
MLINESTYLE
  5
18
102
{ACAD_REACTORS
330
17
102
}
330
17
100
AcDbMlineStyle
  2
Standard
 70
     0
  3

 62
   256
 51
90.0
 52
90.0
 71
     2
 49
0.5
 62
   256
  6
BYLAYER
 49
-0.5
 62
   256
  6
BYLAYER
  0
ACDBPLACEHOLDER
  5
F
102
{ACAD_REACTORS
330
E
102
}
330
E
  0
SCALE
  5
48
102
{ACAD_REACTORS
330
47
102
}
330
47
100
AcDbScale
 70
     0
300
1:1
140
1.0
141
1.0
290
     1
  0
SCALE
  5
49
102
{ACAD_REACTORS
330
47
102
}
330
47
100
AcDbScale
 70
     0
300
1:2
140
1.0
141
2.0
290
     0
  0
SCALE
  5
4A
102
{ACAD_REACTORS
330
47
102
}
330
47
100
AcDbScale
 70
     0
300
1:4
140
1.0
141
4.0
290
     0
  0
SCALE
  5
4B
102
{ACAD_REACTORS
330
47
102
}
330
47
100
AcDbScale
 70
     0
300
1:5
140
1.0
141
5.0
290
     0
  0
SCALE
  5
4C
102
{ACAD_REACTORS
330
47
102
}
330
47
100
AcDbScale
 70
     0
300
1:8
140
1.0
141
8.0
290
     0
  0
SCALE
  5
4D
102
{ACAD_REACTORS
330
47
102
}
330
47
100
AcDbScale
 70
     0
300
1:10
140
1.0
141
10.0
290
     0
  0
SCALE
  5
4E
102
{ACAD_REACTORS
330
47
102
}
330
47
100
AcDbScale
 70
     0
300
1:16
140
1.0
141
16.0
290
     0
  0
SCALE
  5
4F
102
{ACAD_REACTORS
330
47
102
}
330
47
100
AcDbScale
 70
     0
300
1:20
140
1.0
141
20.0
290
     0
  0
SCALE
  5
50
102
{ACAD_REACTORS
330
47
102
}
330
47
100
AcDbScale
 70
     0
300
1:30
140
1.0
141
30.0
290
     0
  0
SCALE
  5
51
102
{ACAD_REACTORS
330
47
102
}
330
47
100
AcDbScale
 70
     0
300
1:40
140
1.0
141
40.0
290
     0
  0
SCALE
  5
52
102
{ACAD_REACTORS
330
47
102
}
330
47
100
AcDbScale
 70
     0
300
1:50
140
1.0
141
50.0
290
     0
  0
SCALE
  5
53
102
{ACAD_REACTORS
330
47
102
}
330
47
100
AcDbScale
 70
     0
300
1:100
140
1.0
141
100.0
290
     0
  0
SCALE
  5
54
102
{ACAD_REACTORS
330
47
102
}
330
47
100
AcDbScale
 70
     0
300
2:1
140
2.0
141
1.0
290
     0
  0
SCALE
  5
55
102
{ACAD_REACTORS
330
47
102
}
330
47
100
AcDbScale
 70
     0
300
4:1
140
4.0
141
1.0
290
     0
  0
SCALE
  5
56
102
{ACAD_REACTORS
330
47
102
}
330
47
100
AcDbScale
 70
     0
300
8:1
140
8.0
141
1.0
290
     0
  0
SCALE
  5
57
102
{ACAD_REACTORS
330
47
102
}
330
47
100
AcDbScale
 70
     0
300
10:1
140
10.0
141
1.0
290
     0
  0
SCALE
  5
58
102
{ACAD_REACTORS
330
47
102
}
330
47
100
AcDbScale
 70
     0
300
100:1
140
100.0
141
1.0
290
     0
  0
SCALE
  5
59
102
{ACAD_REACTORS
330
47
102
}
330
47
100
AcDbScale
 70
     0
300
1/128" = 1'-0"
140
0.0078125
141
12.0
290
     0
  0
SCALE
  5
5A
102
{ACAD_REACTORS
330
47
102
}
330
47
100
AcDbScale
 70
     0
300
1/64" = 1'-0"
140
0.015625
141
12.0
290
     0
  0
SCALE
  5
5B
102
{ACAD_REACTORS
330
47
102
}
330
47
100
AcDbScale
 70
     0
300
1/32" = 1'-0"
140
0.03125
141
12.0
290
     0
  0
SCALE
  5
5C
102
{ACAD_REACTORS
330
47
102
}
330
47
100
AcDbScale
 70
     0
300
1/16" = 1'-0"
140
0.0625
141
12.0
290
     0
  0
SCALE
  5
5D
102
{ACAD_REACTORS
330
47
102
}
330
47
100
AcDbScale
 70
     0
300
3/32" = 1'-0"
140
0.09375
141
12.0
290
     0
  0
SCALE
  5
5E
102
{ACAD_REACTORS
330
47
102
}
330
47
100
AcDbScale
 70
     0
300
1/8" = 1'-0"
140
0.125
141
12.0
290
     0
  0
SCALE
  5
5F
102
{ACAD_REACTORS
330
47
102
}
330
47
100
AcDbScale
 70
     0
300
3/16" = 1'-0"
140
0.1875
141
12.0
290
     0
  0
SCALE
  5
60
102
{ACAD_REACTORS
330
47
102
}
330
47
100
AcDbScale
 70
     0
300
1/4" = 1'-0"
140
0.25
141
12.0
290
     0
  0
SCALE
  5
61
102
{ACAD_REACTORS
330
47
102
}
330
47
100
AcDbScale
 70
     0
300
3/8" = 1'-0"
140
0.375
141
12.0
290
     0
  0
SCALE
  5
62
102
{ACAD_REACTORS
330
47
102
}
330
47
100
AcDbScale
 70
     0
300
1/2" = 1'-0"
140
0.5
141
12.0
290
     0
  0
SCALE
  5
63
102
{ACAD_REACTORS
330
47
102
}
330
47
100
AcDbScale
 70
     0
300
3/4" = 1'-0"
140
0.75
141
12.0
290
     0
  0
SCALE
  5
64
102
{ACAD_REACTORS
330
47
102
}
330
47
100
AcDbScale
 70
     0
300
1" = 1'-0"
140
1.0
141
12.0
290
     0
  0
SCALE
  5
65
102
{ACAD_REACTORS
330
47
102
}
330
47
100
AcDbScale
 70
     0
300
1-1/2" = 1'-0"
140
1.5
141
12.0
290
     0
  0
SCALE
  5
66
102
{ACAD_REACTORS
330
47
102
}
330
47
100
AcDbScale
 70
     0
300
3" = 1'-0"
140
3.0
141
12.0
290
     0
  0
SCALE
  5
67
102
{ACAD_REACTORS
330
47
102
}
330
47
100
AcDbScale
 70
     0
300
6" = 1'-0"
140
6.0
141
12.0
290
     0
  0
SCALE
  5
68
102
{ACAD_REACTORS
330
47
102
}
330
47
100
AcDbScale
 70
     0
300
1'-0" = 1'-0"
140
12.0
141
12.0
290
     0
  0
TABLESTYLE
  5
6A
102
{ACAD_REACTORS
330
69
102
}
102
{ACAD_XDICTIONARY
360
541
102
}
330
69
100
AcDbTableStyle
  3
Standard
 70
     0
 71
     0
 40
0.06
 41
0.06
280
     0
281
     0
  7
Standard
140
0.18
170
     2
 62
     0
 63
   257
283
     0
 90
        4
 91
        0
  1

274
    -2
284
     1
 64
     0
275
    -2
285
     1
 65
     0
276
    -2
286
     1
 66
     0
277
    -2
287
     1
 67
     0
278
    -2
288
     1
 68
     0
279
    -2
289
     1
 69
     0
  7
Standard
140
0.25
170
     5
 62
     0
 63
   257
283
     0
 90
        4
 91
        0
  1

274
    -2
284
     1
 64
     0
275
    -2
285
     1
 65
     0
276
    -2
286
     1
 66
     0
277
    -2
287
     1
 67
     0
278
    -2
288
     1
 68
     0
279
    -2
289
     1
 69
     0
  7
Standard
140
0.18
170
     5
 62
     0
 63
   257
283
     0
 90
        4
 91
        0
  1

274
    -2
284
     1
 64
     0
275
    -2
285
     1
 65
     0
276
    -2
286
     1
 66
     0
277
    -2
287
     1
 67
     0
278
    -2
288
     1
 68
     0
279
    -2
289
     1
 69
     0
  0
VISUALSTYLE
  5
2F
102
{ACAD_REACTORS
330
2A
102
}
330
2A
100
AcDbVisualStyle
  2
2dWireframe
 70
     4
177
     3
291
     0
 70
    58
 90
        0
176
     1
 90
        2
176
     1
 90
        0
176
     1
 90
        0
176
     1
 40
0.6
176
     1
 40
30.0
176
     1
 62
     7
176
     1
 90
        1
176
     1
 90
        4
176
     1
 62
     7
176
     1
 62
   257
176
     1
 90
        1
176
     1
 90
        1
176
     1
 40
1.0
176
     1
 90
        0
176
     1
 62
   257
176
     1
 40
1.0
176
     1
 90
        1
176
     1
 90
        6
176
     1
 90
        2
176
     1
 62
     7
176
     1
 90
        5
176
     1
 90
        0
176
     1
 90
        0
176
     1
290
     0
176
     1
 90
        1
176
     1
 40
0.0
176
     1
 90
        0
176
     1
290
     1
176
     1
290
     1
176
     1
290
     0
176
     1
290
     0
176
     1
290
     0
176
     1
290
     0
176
     1
290
     0
176
     1
290
     0
176
     1
290
     0
176
     1
 90
       50
176
     1
 40
0.0
176
     1
 40
1.0
176
     1
 90
        0
176
     1
 62
    18
420
        0
176
     1
 90
       50
176
     1
 90
        3
176
     1
 62
     5
420
      255
176
     1
290
     0
176
     1
 90
       50
176
     1
 90
       50
176
     1
 90
       50
176
     1
290
     0
176
     1
 90
       50
176
     1
 62
   256
176
     0
 40
1.0
176
     0
 90
        2
176
     1
  1
strokes_ogs.tif
176
     1
290
     0
176
     1
 40
1.0
176
     1
 40
1.0
176
     1
  0
VISUALSTYLE
  5
32
102
{ACAD_REACTORS
330
2A
102
}
330
2A
100
AcDbVisualStyle
  2
Basic
 70
     7
177
     3
291
     1
 70
    58
 90
        1
176
     1
 90
        0
176
     1
 90
        1
176
     1
 90
        0
176
     1
 40
0.6
176
     1
 40
30.0
176
     1
 62
     7
176
     1
 90
        0
176
     1
 90
        4
176
     1
 62
     7
176
     1
 62
   257
176
     1
 90
        1
176
     1
 90
        1
176
     1
 40
1.0
176
     1
 90
        8
176
     1
 62
     7
176
     1
 40
1.0
176
     1
 90
        1
176
     1
 90
        6
176
     1
 90
        2
176
     1
 62
     7
176
     1
 90
        5
176
     1
 90
        0
176
     1
 90
        0
176
     1
290
     0
176
     1
 90
        1
176
     1
 40
0.0
176
     1
 90
        0
176
     1
290
     0
176
     1
290
     1
176
     1
290
     1
176
     1
290
     0
176
     1
290
     0
176
     1
290
     0
176
     1
290
     0
176
     1
290
     0
176
     1
290
     0
176
     1
 90
       50
176
     1
 40
0.0
176
     1
 40
1.0
176
     1
 90
        0
176
     1
 62
    18
420
        0
176
     1
 90
       50
176
     1
 90
        3
176
     1
 62
     5
420
      255
176
     1
290
     0
176
     1
 90
       50
176
     1
 90
       50
176
     1
 90
       50
176
     1
290
     0
176
     1
 90
       50
176
     1
 62
   256
176
     0
 40
1.0
176
     0
 90
        2
176
     1
  1
strokes_ogs.tif
176
     1
290
     0
176
     1
 40
1.0
176
     1
 40
1.0
176
     1
  0
VISUALSTYLE
  5
36
102
{ACAD_REACTORS
330
2A
102
}
330
2A
100
AcDbVisualStyle
  2
Brighten
 70
    12
177
     3
291
     1
 70
    58
 90
        2
176
     1
 90
        2
176
     1
 90
        0
176
     1
 90
        0
176
     1
 40
0.6
176
     1
 40
30.0
176
     1
 62
     7
176
     1
 90
        1
176
     1
 90
        4
176
     1
 62
     7
176
     1
 62
   257
176
     1
 90
        1
176
     1
 90
        1
176
     1
 40
1.0
176
     1
 90
        8
176
     1
 62
     7
176
     1
 40
1.0
176
     1
 90
        1
176
     1
 90
        6
176
     1
 90
        2
176
     1
 62
     7
176
     1
 90
        5
176
     1
 90
        0
176
     1
 90
        0
176
     1
290
     0
176
     1
 90
        1
176
     1
 40
50.0
176
     1
 90
        0
176
     1
290
     0
176
     1
290
     1
176
     1
290
     1
176
     1
290
     0
176
     1
290
     0
176
     1
290
     0
176
     1
290
     0
176
     1
290
     0
176
     1
290
     0
176
     1
 90
       50
176
     1
 40
0.0
176
     1
 40
1.0
176
     1
 90
        0
176
     1
 62
    18
420
        0
176
     1
 90
       50
176
     1
 90
        3
176
     1
 62
     5
420
      255
176
     1
290
     0
176
     1
 90
       50
176
     1
 90
       50
176
     1
 90
       50
176
     1
290
     0
176
     1
 90
       50
176
     1
 62
   256
176
     0
 40
1.0
176
     0
 90
        2
176
     1
  1
strokes_ogs.tif
176
     1
290
     0
176
     1
 40
1.0
176
     1
 40
1.0
176
     1
  0
VISUALSTYLE
  5
3A
102
{ACAD_REACTORS
330
2A
102
}
330
2A
100
AcDbVisualStyle
  2
ColorChange
 70
    16
177
     3
291
     1
 70
    58
 90
        2
176
     1
 90
        2
176
     1
 90
        3
176
     1
 90
        0
176
     1
 40
0.6
176
     1
 40
30.0
176
     1
 62
     8
176
     1
 90
        1
176
     1
 90
        4
176
     1
 62
     7
176
     1
 62
   257
176
     1
 90
        1
176
     1
 90
        1
176
     1
 40
1.0
176
     1
 90
        8
176
     1
 62
     8
176
     1
 40
1.0
176
     1
 90
        1
176
     1
 90
        6
176
     1
 90
        2
176
     1
 62
     7
176
     1
 90
        5
176
     1
 90
        0
176
     1
 90
        0
176
     1
290
     0
176
     1
 90
        1
176
     1
 40
0.0
176
     1
 90
        0
176
     1
290
     0
176
     1
290
     1
176
     1
290
     1
176
     1
290
     0
176
     1
290
     0
176
     1
290
     0
176
     1
290
     0
176
     1
290
     0
176
     1
290
     0
176
     1
 90
       50
176
     1
 40
0.0
176
     1
 40
1.0
176
     1
 90
        0
176
     1
 62
    18
420
        0
176
     1
 90
       50
176
     1
 90
        3
176
     1
 62
     5
420
      255
176
     1
290
     0
176
     1
 90
       50
176
     1
 90
       50
176
     1
 90
       50
176
     1
290
     0
176
     1
 90
       50
176
     1
 62
   256
176
     0
 40
1.0
176
     0
 90
        2
176
     1
  1
strokes_ogs.tif
176
     1
290
     0
176
     1
 40
1.0
176
     1
 40
1.0
176
     1
  0
VISUALSTYLE
  5
34
102
{ACAD_REACTORS
330
2A
102
}
330
2A
100
AcDbVisualStyle
  2
Conceptual
 70
     9
177
     3
291
     0
 70
    58
 90
        3
176
     1
 90
        2
176
     1
 90
        0
176
     1
 90
        0
176
     1
 40
0.6
176
     1
 40
30.0
176
     1
 62
     7
176
     1
 90
        2
176
     1
 90
        2
176
     1
 62
     7
176
     1
 62
   257
176
     1
 90
        1
176
     1
 90
        1
176
     1
 40
179.0
176
     1
 90
        8
176
     1
 62
     7
176
     1
 40
1.0
176
     1
 90
        1
176
     1
 90
        6
176
     1
 90
        2
176
     1
 62
     7
176
     1
 90
        3
176
     1
 90
        0
176
     1
 90
        0
176
     1
290
     0
176
     1
 90
        1
176
     1
 40
0.0
176
     1
 90
        0
176
     1
290
     0
176
     1
290
     1
176
     1
290
     1
176
     1
290
     0
176
     1
290
     0
176
     1
290
     0
176
     1
290
     0
176
     1
290
     0
176
     1
290
     0
176
     1
 90
       50
176
     1
 40
0.0
176
     1
 40
1.0
176
     1
 90
        0
176
     1
 62
    18
420
        0
176
     1
 90
       50
176
     1
 90
        3
176
     1
 62
     5
420
      255
176
     1
290
     0
176
     1
 90
       50
176
     1
 90
       50
176
     1
 90
       50
176
     1
290
     0
176
     1
 90
       50
176
     1
 62
   256
176
     0
 40
1.0
176
     0
 90
        2
176
     1
  1
strokes_ogs.tif
176
     1
290
     0
176
     1
 40
1.0
176
     1
 40
1.0
176
     1
  0
VISUALSTYLE
  5
35
102
{ACAD_REACTORS
330
2A
102
}
330
2A
100
AcDbVisualStyle
  2
Dim
 70
    11
177
     3
291
     1
 70
    58
 90
        2
176
     1
 90
        2
176
     1
 90
        0
176
     1
 90
        0
176
     1
 40
0.6
176
     1
 40
30.0
176
     1
 62
     7
176
     1
 90
        1
176
     1
 90
        4
176
     1
 62
     7
176
     1
 62
   257
176
     1
 90
        1
176
     1
 90
        1
176
     1
 40
1.0
176
     1
 90
        8
176
     1
 62
     7
176
     1
 40
1.0
176
     1
 90
        1
176
     1
 90
        6
176
     1
 90
        2
176
     1
 62
     7
176
     1
 90
        5
176
     1
 90
        0
176
     1
 90
        0
176
     1
290
     0
176
     1
 90
        1
176
     1
 40
-50.0
176
     1
 90
        0
176
     1
290
     0
176
     1
290
     1
176
     1
290
     1
176
     1
290
     0
176
     1
290
     0
176
     1
290
     0
176
     1
290
     0
176
     1
290
     0
176
     1
290
     0
176
     1
 90
       50
176
     1
 40
0.0
176
     1
 40
1.0
176
     1
 90
        0
176
     1
 62
    18
420
        0
176
     1
 90
       50
176
     1
 90
        3
176
     1
 62
     5
420
      255
176
     1
290
     0
176
     1
 90
       50
176
     1
 90
       50
176
     1
 90
       50
176
     1
290
     0
176
     1
 90
       50
176
     1
 62
   256
176
     0
 40
1.0
176
     0
 90
        2
176
     1
  1
strokes_ogs.tif
176
     1
290
     0
176
     1
 40
1.0
176
     1
 40
1.0
176
     1
  0
VISUALSTYLE
  5
3D
102
{ACAD_REACTORS
330
2A
102
}
330
2A
100
AcDbVisualStyle
  2
EdgeColorOff
 70
    22
177
     3
291
     1
 70
    58
 90
        2
176
     0
 90
        2
176
     0
 90
        0
176
     0
 90
        0
176
     0
 40
0.6
176
     0
 40
30.0
176
     0
 62
     7
176
     0
 90
        1
176
     0
 90
        4
176
     0
 62
     7
176
     0
 62
   257
176
     0
 90
        1
176
     0
 90
        1
176
     0
 40
1.0
176
     0
 90
        8
176
     2
 62
     7
176
     0
 40
1.0
176
     0
 90
        1
176
     0
 90
        6
176
     0
 90
        2
176
     0
 62
     7
176
     0
 90
        5
176
     0
 90
        0
176
     0
 90
        0
176
     0
290
     0
176
     0
 90
        1
176
     0
 40
0.0
176
     0
 90
        0
176
     0
290
     0
176
     0
290
     1
176
     0
290
     1
176
     0
290
     0
176
     0
290
     0
176
     0
290
     0
176
     0
290
     0
176
     0
290
     0
176
     0
290
     0
176
     0
 90
       50
176
     0
 40
0.0
176
     0
 40
1.0
176
     0
 90
        0
176
     0
 62
    18
420
        0
176
     0
 90
       50
176
     0
 90
        3
176
     0
 62
     5
420
      255
176
     0
290
     0
176
     0
 90
       50
176
     0
 90
       50
176
     0
 90
       50
176
     0
290
     0
176
     0
 90
       50
176
     0
 62
   256
176
     0
 40
1.0
176
     0
 90
        2
176
     0
  1
strokes_ogs.tif
176
     0
290
     0
176
     0
 40
1.0
176
     0
 40
1.0
176
     0
  0
VISUALSTYLE
  5
39
102
{ACAD_REACTORS
330
2A
102
}
330
2A
100
AcDbVisualStyle
  2
Facepattern
 70
    15
177
     3
291
     1
 70
    58
 90
        2
176
     1
 90
        2
176
     1
 90
        0
176
     1
 90
        0
176
     1
 40
0.6
176
     1
 40
30.0
176
     1
 62
     7
176
     1
 90
        1
176
     1
 90
        4
176
     1
 62
     7
176
     1
 62
   257
176
     1
 90
        1
176
     1
 90
        1
176
     1
 40
1.0
176
     1
 90
        8
176
     1
 62
     7
176
     1
 40
1.0
176
     1
 90
        1
176
     1
 90
        6
176
     1
 90
        2
176
     1
 62
     7
176
     1
 90
        5
176
     1
 90
        0
176
     1
 90
        0
176
     1
290
     0
176
     1
 90
        1
176
     1
 40
0.0
176
     1
 90
        0
176
     1
290
     0
176
     1
290
     1
176
     1
290
     1
176
     1
290
     0
176
     1
290
     0
176
     1
290
     0
176
     1
290
     0
176
     1
290
     0
176
     1
290
     0
176
     1
 90
       50
176
     1
 40
0.0
176
     1
 40
1.0
176
     1
 90
        0
176
     1
 62
    18
420
        0
176
     1
 90
       50
176
     1
 90
        3
176
     1
 62
     5
420
      255
176
     1
290
     0
176
     1
 90
       50
176
     1
 90
       50
176
     1
 90
       50
176
     1
290
     0
176
     1
 90
       50
176
     1
 62
   256
176
     0
 40
1.0
176
     0
 90
        2
176
     1
  1
strokes_ogs.tif
176
     1
290
     0
176
     1
 40
1.0
176
     1
 40
1.0
176
     1
  0
VISUALSTYLE
  5
2B
102
{ACAD_REACTORS
330
2A
102
}
330
2A
100
AcDbVisualStyle
  2
Flat
 70
     0
177
     3
291
     1
 70
    58
 90
        2
176
     1
 90
        1
176
     1
 90
        1
176
     1
 90
        2
176
     1
 40
0.6
176
     1
 40
30.0
176
     1
 62
     7
176
     1
 90
        0
176
     1
 90
        0
176
     1
 62
     7
176
     1
 62
   257
176
     1
 90
        1
176
     1
 90
        1
176
     1
 40
1.0
176
     1
 90
        8
176
     1
 62
     7
176
     1
 40
1.0
176
     1
 90
        1
176
     1
 90
        6
176
     1
 90
        2
176
     1
 62
     7
176
     1
 90
        5
176
     1
 90
        0
176
     1
 90
        0
176
     1
290
     0
176
     1
 90
       13
176
     1
 40
0.0
176
     1
 90
        0
176
     1
290
     0
176
     1
290
     1
176
     1
290
     1
176
     1
290
     0
176
     1
290
     0
176
     1
290
     0
176
     1
290
     0
176
     1
290
     0
176
     1
290
     0
176
     1
 90
       50
176
     1
 40
0.0
176
     1
 40
1.0
176
     1
 90
        0
176
     1
 62
    18
420
        0
176
     1
 90
       50
176
     1
 90
        3
176
     1
 62
     5
420
      255
176
     1
290
     0
176
     1
 90
       50
176
     1
 90
       50
176
     1
 90
       50
176
     1
290
     0
176
     1
 90
       50
176
     1
 62
   256
176
     0
 40
1.0
176
     0
 90
        2
176
     1
  1
strokes_ogs.tif
176
     1
290
     0
176
     1
 40
1.0
176
     1
 40
1.0
176
     1
  0
VISUALSTYLE
  5
2C
102
{ACAD_REACTORS
330
2A
102
}
330
2A
100
AcDbVisualStyle
  2
FlatWithEdges
 70
     1
177
     3
291
     1
 70
    58
 90
        2
176
     1
 90
        1
176
     1
 90
        1
176
     1
 90
        2
176
     1
 40
0.6
176
     1
 40
30.0
176
     1
 62
     7
176
     1
 90
        1
176
     1
 90
        0
176
     1
 62
     7
176
     1
 62
   257
176
     1
 90
        1
176
     1
 90
        1
176
     1
 40
1.0
176
     1
 90
        0
176
     1
 62
   257
176
     1
 40
1.0
176
     1
 90
        1
176
     1
 90
        6
176
     1
 90
        2
176
     1
 62
     7
176
     1
 90
        5
176
     1
 90
        0
176
     1
 90
        0
176
     1
290
     0
176
     1
 90
       13
176
     1
 40
0.0
176
     1
 90
        0
176
     1
290
     0
176
     1
290
     1
176
     1
290
     1
176
     1
290
     0
176
     1
290
     0
176
     1
290
     0
176
     1
290
     0
176
     1
290
     0
176
     1
290
     0
176
     1
 90
       50
176
     1
 40
0.0
176
     1
 40
1.0
176
     1
 90
        0
176
     1
 62
    18
420
        0
176
     1
 90
       50
176
     1
 90
        3
176
     1
 62
     5
420
      255
176
     1
290
     0
176
     1
 90
       50
176
     1
 90
       50
176
     1
 90
       50
176
     1
290
     0
176
     1
 90
       50
176
     1
 62
   256
176
     0
 40
1.0
176
     0
 90
        2
176
     1
  1
strokes_ogs.tif
176
     1
290
     0
176
     1
 40
1.0
176
     1
 40
1.0
176
     1
  0
VISUALSTYLE
  5
2D
102
{ACAD_REACTORS
330
2A
102
}
330
2A
100
AcDbVisualStyle
  2
Gouraud
 70
     2
177
     3
291
     1
 70
    58
 90
        2
176
     1
 90
        2
176
     1
 90
        1
176
     1
 90
        2
176
     1
 40
0.6
176
     1
 40
30.0
176
     1
 62
     7
176
     1
 90
        0
176
     1
 90
        0
176
     1
 62
     7
176
     1
 62
   257
176
     1
 90
        1
176
     1
 90
        1
176
     1
 40
1.0
176
     1
 90
        0
176
     1
 62
     7
176
     1
 40
1.0
176
     1
 90
        1
176
     1
 90
        6
176
     1
 90
        2
176
     1
 62
     7
176
     1
 90
        5
176
     1
 90
        0
176
     1
 90
        0
176
     1
290
     0
176
     1
 90
       13
176
     1
 40
0.0
176
     1
 90
        0
176
     1
290
     0
176
     1
290
     1
176
     1
290
     1
176
     1
290
     0
176
     1
290
     0
176
     1
290
     0
176
     1
290
     0
176
     1
290
     0
176
     1
290
     0
176
     1
 90
       50
176
     1
 40
0.0
176
     1
 40
1.0
176
     1
 90
        0
176
     1
 62
    18
420
        0
176
     1
 90
       50
176
     1
 90
        3
176
     1
 62
     5
420
      255
176
     1
290
     0
176
     1
 90
       50
176
     1
 90
       50
176
     1
 90
       50
176
     1
290
     0
176
     1
 90
       50
176
     1
 62
   256
176
     0
 40
1.0
176
     0
 90
        2
176
     1
  1
strokes_ogs.tif
176
     1
290
     0
176
     1
 40
1.0
176
     1
 40
1.0
176
     1
  0
VISUALSTYLE
  5
2E
102
{ACAD_REACTORS
330
2A
102
}
330
2A
100
AcDbVisualStyle
  2
GouraudWithEdges
 70
     3
177
     3
291
     1
 70
    58
 90
        2
176
     1
 90
        2
176
     1
 90
        1
176
     1
 90
        2
176
     1
 40
0.6
176
     1
 40
30.0
176
     1
 62
     7
176
     1
 90
        1
176
     1
 90
        0
176
     1
 62
     7
176
     1
 62
   257
176
     1
 90
        1
176
     1
 90
        1
176
     1
 40
1.0
176
     1
 90
        0
176
     1
 62
   257
176
     1
 40
1.0
176
     1
 90
        1
176
     1
 90
        6
176
     1
 90
        2
176
     1
 62
     7
176
     1
 90
        5
176
     1
 90
        0
176
     1
 90
        0
176
     1
290
     0
176
     1
 90
       13
176
     1
 40
0.0
176
     1
 90
        0
176
     1
290
     0
176
     1
290
     1
176
     1
290
     1
176
     1
290
     0
176
     1
290
     0
176
     1
290
     0
176
     1
290
     0
176
     1
290
     0
176
     1
290
     0
176
     1
 90
       50
176
     1
 40
0.0
176
     1
 40
1.0
176
     1
 90
        0
176
     1
 62
    18
420
        0
176
     1
 90
       50
176
     1
 90
        3
176
     1
 62
     5
420
      255
176
     1
290
     0
176
     1
 90
       50
176
     1
 90
       50
176
     1
 90
       50
176
     1
290
     0
176
     1
 90
       50
176
     1
 62
   256
176
     0
 40
1.0
176
     0
 90
        2
176
     1
  1
strokes_ogs.tif
176
     1
290
     0
176
     1
 40
1.0
176
     1
 40
1.0
176
     1
  0
VISUALSTYLE
  5
31
102
{ACAD_REACTORS
330
2A
102
}
330
2A
100
AcDbVisualStyle
  2
Hidden
 70
     6
177
     3
291
     0
 70
    58
 90
        1
176
     1
 90
        2
176
     1
 90
        2
176
     1
 90
        0
176
     1
 40
0.6
176
     1
 40
30.0
176
     1
 62
     7
176
     1
 90
        2
176
     1
 90
        2
176
     1
 62
     7
176
     1
 62
   257
176
     1
 90
        2
176
     1
 90
        1
176
     1
 40
40.0
176
     1
 90
        0
176
     1
 62
   257
176
     1
 40
1.0
176
     1
 90
        1
176
     1
 90
        6
176
     1
 90
        2
176
     1
 62
     7
176
     1
 90
        3
176
     1
 90
        0
176
     1
 90
        0
176
     1
290
     0
176
     1
 90
        1
176
     1
 40
0.0
176
     1
 90
        0
176
     1
290
     0
176
     1
290
     1
176
     1
290
     1
176
     1
290
     0
176
     1
290
     0
176
     1
290
     0
176
     1
290
     0
176
     1
290
     0
176
     1
290
     0
176
     1
 90
       50
176
     1
 40
0.0
176
     1
 40
1.0
176
     1
 90
        0
176
     1
 62
    18
420
        0
176
     1
 90
       50
176
     1
 90
        3
176
     1
 62
     5
420
      255
176
     1
290
     0
176
     1
 90
       50
176
     1
 90
       50
176
     1
 90
       50
176
     1
290
     0
176
     1
 90
       50
176
     1
 62
   256
176
     0
 40
1.0
176
     0
 90
        2
176
     1
  1
strokes_ogs.tif
176
     1
290
     0
176
     1
 40
1.0
176
     1
 40
1.0
176
     1
  0
VISUALSTYLE
  5
3B
102
{ACAD_REACTORS
330
2A
102
}
330
2A
100
AcDbVisualStyle
  2
JitterOff
 70
    20
177
     3
291
     1
 70
    58
 90
        2
176
     0
 90
        2
176
     0
 90
        0
176
     0
 90
        0
176
     0
 40
0.6
176
     0
 40
30.0
176
     0
 62
     7
176
     0
 90
        1
176
     0
 90
        4
176
     0
 62
     7
176
     0
 62
   257
176
     0
 90
        1
176
     0
 90
        1
176
     0
 40
1.0
176
     0
 90
       10
176
     2
 62
     7
176
     0
 40
1.0
176
     0
 90
        1
176
     0
 90
        6
176
     0
 90
        2
176
     0
 62
     7
176
     0
 90
        5
176
     0
 90
        0
176
     0
 90
        0
176
     0
290
     0
176
     0
 90
        1
176
     0
 40
0.0
176
     0
 90
        0
176
     0
290
     0
176
     0
290
     1
176
     0
290
     1
176
     0
290
     0
176
     0
290
     0
176
     0
290
     0
176
     0
290
     0
176
     0
290
     0
176
     0
290
     0
176
     0
 90
       50
176
     0
 40
0.0
176
     0
 40
1.0
176
     0
 90
        0
176
     0
 62
    18
420
        0
176
     0
 90
       50
176
     0
 90
        3
176
     0
 62
     5
420
      255
176
     0
290
     0
176
     0
 90
       50
176
     0
 90
       50
176
     0
 90
       50
176
     0
290
     0
176
     0
 90
       50
176
     0
 62
   256
176
     0
 40
1.0
176
     0
 90
        2
176
     0
  1
strokes_ogs.tif
176
     0
290
     0
176
     0
 40
1.0
176
     0
 40
1.0
176
     0
  0
VISUALSTYLE
  5
38
102
{ACAD_REACTORS
330
2A
102
}
330
2A
100
AcDbVisualStyle
  2
Linepattern
 70
    14
177
     3
291
     1
 70
    58
 90
        2
176
     1
 90
        2
176
     1
 90
        0
176
     1
 90
        0
176
     1
 40
0.6
176
     1
 40
30.0
176
     1
 62
     7
176
     1
 90
        1
176
     1
 90
        4
176
     1
 62
     7
176
     1
 62
   257
176
     1
 90
        7
176
     1
 90
        7
176
     1
 40
1.0
176
     1
 90
        8
176
     1
 62
     7
176
     1
 40
1.0
176
     1
 90
        1
176
     1
 90
        6
176
     1
 90
        2
176
     1
 62
     7
176
     1
 90
        5
176
     1
 90
        0
176
     1
 90
        0
176
     1
290
     0
176
     1
 90
        1
176
     1
 40
0.0
176
     1
 90
        0
176
     1
290
     0
176
     1
290
     1
176
     1
290
     1
176
     1
290
     0
176
     1
290
     0
176
     1
290
     0
176
     1
290
     0
176
     1
290
     0
176
     1
290
     0
176
     1
 90
       50
176
     1
 40
0.0
176
     1
 40
1.0
176
     1
 90
        0
176
     1
 62
    18
420
        0
176
     1
 90
       50
176
     1
 90
        3
176
     1
 62
     5
420
      255
176
     1
290
     0
176
     1
 90
       50
176
     1
 90
       50
176
     1
 90
       50
176
     1
290
     0
176
     1
 90
       50
176
     1
 62
   256
176
     0
 40
1.0
176
     0
 90
        2
176
     1
  1
strokes_ogs.tif
176
     1
290
     0
176
     1
 40
1.0
176
     1
 40
1.0
176
     1
  0
VISUALSTYLE
  5
3C
102
{ACAD_REACTORS
330
2A
102
}
330
2A
100
AcDbVisualStyle
  2
OverhangOff
 70
    21
177
     3
291
     1
 70
    58
 90
        2
176
     0
 90
        2
176
     0
 90
        0
176
     0
 90
        0
176
     0
 40
0.6
176
     0
 40
30.0
176
     0
 62
     7
176
     0
 90
        1
176
     0
 90
        4
176
     0
 62
     7
176
     0
 62
   257
176
     0
 90
        1
176
     0
 90
        1
176
     0
 40
1.0
176
     0
 90
        9
176
     2
 62
     7
176
     0
 40
1.0
176
     0
 90
        1
176
     0
 90
        6
176
     0
 90
        2
176
     0
 62
     7
176
     0
 90
        5
176
     0
 90
        0
176
     0
 90
        0
176
     0
290
     0
176
     0
 90
        1
176
     0
 40
0.0
176
     0
 90
        0
176
     0
290
     0
176
     0
290
     1
176
     0
290
     1
176
     0
290
     0
176
     0
290
     0
176
     0
290
     0
176
     0
290
     0
176
     0
290
     0
176
     0
290
     0
176
     0
 90
       50
176
     0
 40
0.0
176
     0
 40
1.0
176
     0
 90
        0
176
     0
 62
    18
420
        0
176
     0
 90
       50
176
     0
 90
        3
176
     0
 62
     5
420
      255
176
     0
290
     0
176
     0
 90
       50
176
     0
 90
       50
176
     0
 90
       50
176
     0
290
     0
176
     0
 90
       50
176
     0
 62
   256
176
     0
 40
1.0
176
     0
 90
        2
176
     0
  1
strokes_ogs.tif
176
     0
290
     0
176
     0
 40
1.0
176
     0
 40
1.0
176
     0
  0
VISUALSTYLE
  5
33
102
{ACAD_REACTORS
330
2A
102
}
330
2A
100
AcDbVisualStyle
  2
Realistic
 70
     8
177
     3
291
     0
 70
    58
 90
        2
176
     1
 90
        3
176
     1
 90
        0
176
     1
 90
        2
176
     1
 40
0.6
176
     1
 40
30.0
176
     1
 62
     7
176
     1
 90
        0
176
     1
 90
        0
176
     1
 62
     7
176
     1
 62
   257
176
     1
 90
        1
176
     1
 90
        1
176
     1
 40
1.0
176
     1
 90
        8
176
     1
 62
   257
176
     1
 40
1.0
176
     1
 90
        1
176
     1
 90
        6
176
     1
 90
        2
176
     1
 62
     7
176
     1
 90
        3
176
     1
 90
        0
176
     1
 90
        0
176
     1
290
     0
176
     1
 90
       13
176
     1
 40
0.0
176
     1
 90
        0
176
     1
290
     0
176
     1
290
     1
176
     1
290
     1
176
     1
290
     0
176
     1
290
     0
176
     1
290
     0
176
     1
290
     0
176
     1
290
     0
176
     1
290
     0
176
     1
 90
       50
176
     1
 40
0.0
176
     1
 40
1.0
176
     1
 90
        0
176
     1
 62
    18
420
        0
176
     1
 90
       50
176
     1
 90
        3
176
     1
 62
     5
420
      255
176
     1
290
     0
176
     1
 90
       50
176
     1
 90
       50
176
     1
 90
       50
176
     1
290
     0
176
     1
 90
       50
176
     1
 62
   256
176
     0
 40
1.0
176
     0
 90
        2
176
     1
  1
strokes_ogs.tif
176
     1
290
     0
176
     1
 40
1.0
176
     1
 40
1.0
176
     1
  0
VISUALSTYLE
  5
42
102
{ACAD_REACTORS
330
2A
102
}
330
2A
100
AcDbVisualStyle
  2
Shaded
 70
    27
177
     3
291
     0
 70
    58
 90
        2
176
     1
 90
        2
176
     1
 90
        1
176
     1
 90
        2
176
     1
 40
0.6
176
     1
 40
30.0
176
     1
 62
     7
176
     1
 90
        0
176
     1
 90
        4
176
     1
 62
     7
176
     1
 62
   257
176
     1
 90
        1
176
     1
 90
        1
176
     1
 40
1.0
176
     1
 90
        8
176
     1
 62
   257
176
     1
 40
1.0
176
     1
 90
        1
176
     1
 90
        6
176
     1
 90
        2
176
     1
 62
     8
176
     1
 90
        3
176
     1
 90
        0
176
     1
 90
        0
176
     1
290
     0
176
     1
 90
        5
176
     1
 40
0.0
176
     1
 90
        0
176
     1
290
     0
176
     1
290
     1
176
     1
290
     1
176
     1
290
     0
176
     1
290
     0
176
     1
290
     0
176
     1
290
     0
176
     1
290
     0
176
     1
290
     0
176
     1
 90
       50
176
     1
 40
0.0
176
     1
 40
1.0
176
     1
 90
        0
176
     1
 62
    18
420
        0
176
     1
 90
       50
176
     1
 90
        3
176
     1
 62
     5
420
      255
176
     1
290
     0
176
     1
 90
       50
176
     1
 90
       50
176
     1
 90
       50
176
     1
290
     0
176
     1
 90
       50
176
     1
 62
   256
176
     0
 40
1.0
176
     0
 90
        2
176
     1
  1
strokes_ogs.tif
176
     1
290
     0
176
     1
 40
1.0
176
     1
 40
1.0
176
     1
  0
VISUALSTYLE
  5
41
102
{ACAD_REACTORS
330
2A
102
}
330
2A
100
AcDbVisualStyle
  2
Shaded with edges
 70
    26
177
     3
291
     0
 70
    58
 90
        2
176
     1
 90
        2
176
     1
 90
        1
176
     1
 90
        2
176
     1
 40
0.6
176
     1
 40
30.0
176
     1
 62
     7
176
     1
 90
        1
176
     1
 90
       10
176
     1
 62
     7
176
     1
 62
   257
176
     1
 90
        2
176
     1
 90
        1
176
     1
 40
1.0
176
     1
 90
        8
176
     1
 62
   257
176
     1
 40
1.0
176
     1
 90
        1
176
     1
 90
        6
176
     1
 90
        2
176
     1
 62
     7
176
     1
 90
        3
176
     1
 90
        0
176
     1
 90
        0
176
     1
290
     0
176
     1
 90
        5
176
     1
 40
0.0
176
     1
 90
        0
176
     1
290
     0
176
     1
290
     1
176
     1
290
     1
176
     1
290
     0
176
     1
290
     0
176
     1
290
     0
176
     1
290
     0
176
     1
290
     0
176
     1
290
     0
176
     1
 90
       50
176
     1
 40
0.0
176
     1
 40
1.0
176
     1
 90
        0
176
     1
 62
    18
420
        0
176
     1
 90
       50
176
     1
 90
        3
176
     1
 62
     5
420
      255
176
     1
290
     0
176
     1
 90
       50
176
     1
 90
       50
176
     1
 90
       50
176
     1
290
     0
176
     1
 90
       50
176
     1
 62
   256
176
     0
 40
1.0
176
     0
 90
        2
176
     1
  1
strokes_ogs.tif
176
     1
290
     0
176
     1
 40
1.0
176
     1
 40
1.0
176
     1
  0
VISUALSTYLE
  5
3E
102
{ACAD_REACTORS
330
2A
102
}
330
2A
100
AcDbVisualStyle
  2
Shades of Gray
 70
    23
177
     3
291
     0
 70
    58
 90
        2
176
     1
 90
        2
176
     1
 90
        3
176
     1
 90
        0
176
     1
 40
0.6
176
     1
 40
30.0
176
     1
 62
     7
176
     1
 90
        2
176
     1
 90
        2
176
     1
 62
     7
176
     1
 62
     7
176
     1
 90
        1
176
     1
 90
        1
176
     1
 40
40.0
176
     1
 90
        8
176
     1
 62
     7
176
     1
 40
1.0
176
     1
 90
        1
176
     1
 90
        6
176
     1
 90
        2
176
     1
 62
     7
176
     1
 90
        3
176
     1
 90
        0
176
     1
 90
        0
176
     1
290
     0
176
     1
 90
        1
176
     1
 40
0.0
176
     1
 90
        0
176
     1
290
     0
176
     1
290
     1
176
     1
290
     1
176
     1
290
     0
176
     1
290
     0
176
     1
290
     0
176
     1
290
     0
176
     1
290
     0
176
     1
290
     0
176
     1
 90
       50
176
     1
 40
0.0
176
     1
 40
1.0
176
     1
 90
        0
176
     1
 62
    18
420
        0
176
     1
 90
       50
176
     1
 90
        3
176
     1
 62
     5
420
      255
176
     1
290
     0
176
     1
 90
       50
176
     1
 90
       50
176
     1
 90
       50
176
     1
290
     0
176
     1
 90
       50
176
     1
 62
   256
176
     0
 40
1.0
176
     0
 90
        2
176
     1
  1
strokes_ogs.tif
176
     1
290
     0
176
     1
 40
1.0
176
     1
 40
1.0
176
     1
  0
VISUALSTYLE
  5
3F
102
{ACAD_REACTORS
330
2A
102
}
330
2A
100
AcDbVisualStyle
  2
Sketchy
 70
    24
177
     3
291
     0
 70
    58
 90
        1
176
     1
 90
        2
176
     1
 90
        2
176
     1
 90
        0
176
     1
 40
0.6
176
     1
 40
30.0
176
     1
 62
     7
176
     1
 90
        2
176
     1
 90
        2
176
     1
 62
     7
176
     1
 62
     7
176
     1
 90
        1
176
     1
 90
        1
176
     1
 40
40.0
176
     1
 90
       11
176
     1
 62
     7
176
     1
 40
1.0
176
     1
 90
        1
176
     1
 90
        6
176
     1
 90
        2
176
     1
 62
     7
176
     1
 90
        6
176
     1
 90
        0
176
     1
 90
        0
176
     1
290
     0
176
     1
 90
        1
176
     1
 40
0.0
176
     1
 90
        0
176
     1
290
     0
176
     1
290
     1
176
     1
290
     1
176
     1
290
     0
176
     1
290
     0
176
     1
290
     0
176
     1
290
     0
176
     1
290
     0
176
     1
290
     0
176
     1
 90
       50
176
     1
 40
0.0
176
     1
 40
1.0
176
     1
 90
        0
176
     1
 62
    18
420
        0
176
     1
 90
       50
176
     1
 90
        3
176
     1
 62
     5
420
      255
176
     1
290
     0
176
     1
 90
       50
176
     1
 90
       50
176
     1
 90
       50
176
     1
290
     0
176
     1
 90
       50
176
     1
 62
   256
176
     0
 40
1.0
176
     0
 90
        2
176
     1
  1
strokes_ogs.tif
176
     1
290
     0
176
     1
 40
1.0
176
     1
 40
1.0
176
     1
  0
VISUALSTYLE
  5
37
102
{ACAD_REACTORS
330
2A
102
}
330
2A
100
AcDbVisualStyle
  2
Thicken
 70
    13
177
     3
291
     1
 70
    58
 90
        2
176
     1
 90
        2
176
     1
 90
        0
176
     1
 90
        0
176
     1
 40
0.6
176
     1
 40
30.0
176
     1
 62
     7
176
     1
 90
        1
176
     1
 90
        4
176
     1
 62
     7
176
     1
 62
   257
176
     1
 90
        1
176
     1
 90
        1
176
     1
 40
1.0
176
     1
 90
       12
176
     1
 62
     7
176
     1
 40
1.0
176
     1
 90
        1
176
     1
 90
        6
176
     1
 90
        2
176
     1
 62
     7
176
     1
 90
        5
176
     1
 90
        0
176
     1
 90
        0
176
     1
290
     0
176
     1
 90
        1
176
     1
 40
0.0
176
     1
 90
        0
176
     1
290
     0
176
     1
290
     1
176
     1
290
     1
176
     1
290
     0
176
     1
290
     0
176
     1
290
     0
176
     1
290
     0
176
     1
290
     0
176
     1
290
     0
176
     1
 90
       50
176
     1
 40
0.0
176
     1
 40
1.0
176
     1
 90
        0
176
     1
 62
    18
420
        0
176
     1
 90
       50
176
     1
 90
        3
176
     1
 62
     5
420
      255
176
     1
290
     0
176
     1
 90
       50
176
     1
 90
       50
176
     1
 90
       50
176
     1
290
     0
176
     1
 90
       50
176
     1
 62
   256
176
     0
 40
1.0
176
     0
 90
        2
176
     1
  1
strokes_ogs.tif
176
     1
290
     0
176
     1
 40
1.0
176
     1
 40
1.0
176
     1
  0
VISUALSTYLE
  5
30
102
{ACAD_REACTORS
330
2A
102
}
330
2A
100
AcDbVisualStyle
  2
Wireframe
 70
     5
177
     3
291
     0
 70
    58
 90
        0
176
     1
 90
        2
176
     1
 90
        0
176
     1
 90
        0
176
     1
 40
0.6
176
     1
 40
30.0
176
     1
 62
     7
176
     1
 90
        1
176
     1
 90
        4
176
     1
 62
     7
176
     1
 62
   257
176
     1
 90
        1
176
     1
 90
        1
176
     1
 40
1.0
176
     1
 90
        0
176
     1
 62
   257
176
     1
 40
1.0
176
     1
 90
        1
176
     1
 90
        6
176
     1
 90
        2
176
     1
 62
     7
176
     1
 90
        3
176
     1
 90
        0
176
     1
 90
        0
176
     1
290
     0
176
     1
 90
        1
176
     1
 40
0.0
176
     1
 90
        0
176
     1
290
     0
176
     1
290
     1
176
     1
290
     1
176
     1
290
     0
176
     1
290
     0
176
     1
290
     0
176
     1
290
     0
176
     1
290
     0
176
     1
290
     0
176
     1
 90
       50
176
     1
 40
0.0
176
     1
 40
1.0
176
     1
 90
        0
176
     1
 62
    18
420
        0
176
     1
 90
       50
176
     1
 90
        3
176
     1
 62
     5
420
      255
176
     1
290
     0
176
     1
 90
       50
176
     1
 90
       50
176
     1
 90
       50
176
     1
290
     0
176
     1
 90
       50
176
     1
 62
   256
176
     0
 40
1.0
176
     0
 90
        2
176
     1
  1
strokes_ogs.tif
176
     1
290
     0
176
     1
 40
1.0
176
     1
 40
1.0
176
     1
  0
VISUALSTYLE
  5
40
102
{ACAD_REACTORS
330
2A
102
}
330
2A
100
AcDbVisualStyle
  2
X-Ray
 70
    25
177
     3
291
     0
 70
    58
 90
        2
176
     1
 90
        2
176
     1
 90
        1
176
     1
 90
        1
176
     1
 40
0.5
176
     1
 40
30.0
176
     1
 62
     7
176
     1
 90
        1
176
     1
 90
        0
176
     1
 62
     7
176
     1
 62
   257
176
     1
 90
        1
176
     1
 90
        1
176
     1
 40
1.0
176
     1
 90
        8
176
     1
 62
     7
176
     1
 40
1.0
176
     1
 90
        1
176
     1
 90
        6
176
     1
 90
        2
176
     1
 62
     7
176
     1
 90
        3
176
     1
 90
        0
176
     1
 90
        0
176
     1
290
     0
176
     1
 90
       13
176
     1
 40
0.0
176
     1
 90
        0
176
     1
290
     0
176
     1
290
     1
176
     1
290
     1
176
     1
290
     0
176
     1
290
     0
176
     1
290
     0
176
     1
290
     0
176
     1
290
     0
176
     1
290
     0
176
     1
 90
       50
176
     1
 40
0.0
176
     1
 40
1.0
176
     1
 90
        0
176
     1
 62
    18
420
        0
176
     1
 90
       50
176
     1
 90
        3
176
     1
 62
     5
420
      255
176
     1
290
     0
176
     1
 90
       50
176
     1
 90
       50
176
     1
 90
       50
176
     1
290
     0
176
     1
 90
       50
176
     1
 62
   256
176
     0
 40
1.0
176
     0
 90
        2
176
     1
  1
strokes_ogs.tif
176
     1
290
     0
176
     1
 40
1.0
176
     1
 40
1.0
176
     1
  0
DICTIONARYVAR
  5
53E
102
{ACAD_REACTORS
330
1CF
102
}
330
1CF
100
DictionaryVariables
280
     0
  1
1:1
  0
DICTIONARYVAR
  5
1D1
102
{ACAD_REACTORS
330
1CF
102
}
330
1CF
100
DictionaryVariables
280
     0
  1
Standard
  0
DICTIONARYVAR
  5
1D0
102
{ACAD_REACTORS
330
1CF
102
}
330
1CF
100
DictionaryVariables
280
     0
  1
Standard
  0
DICTIONARYVAR
  5
1D4
102
{ACAD_REACTORS
330
1CF
102
}
330
1CF
100
DictionaryVariables
280
     0
  1
2
  0
DICTIONARYVAR
  5
1D5
102
{ACAD_REACTORS
330
1CF
102
}
330
1CF
100
DictionaryVariables
280
     0
  1
1
  0
DICTIONARYVAR
  5
1F9
102
{ACAD_REACTORS
330
1CF
102
}
330
1CF
100
DictionaryVariables
280
     0
  1
1
  0
DICTIONARY
  5
541
330
6A
100
AcDbDictionary
280
     1
281
     1
  3
ACAD_ROUNDTRIP_2008_TABLESTYLE_CELLSTYLEMAP
360
542
  0
CELLSTYLEMAP
  5
542
102
{ACAD_REACTORS
330
541
102
}
330
541
100
AcDbCellStyleMap
 90
        3
300
CELLSTYLE
  1
TABLEFORMAT_BEGIN
 90
        5
170
     1
 91
        0
 92
    32768
 62
   257
 93
        1
300
CONTENTFORMAT
  1
CONTENTFORMAT_BEGIN
 90
        0
 91
        0
 92
        4
 93
        0
300

 40
0.0
140
1.0
 94
        5
 62
     0
340
11
144
0.25
309
CONTENTFORMAT_END
171
     1
301
MARGIN
  1
CELLMARGIN_BEGIN
 40
0.06
 40
0.06
 40
0.06
 40
0.06
 40
0.06
 40
0.06
309
CELLMARGIN_END
 94
        6
 95
        1
302
GRIDFORMAT
  1
GRIDFORMAT_BEGIN
 90
        0
 91
        1
 62
     0
 92
       -2
340
14
 93
        0
 40
0.045
309
GRIDFORMAT_END
 95
        2
302
GRIDFORMAT
  1
GRIDFORMAT_BEGIN
 90
        0
 91
        1
 62
     0
 92
       -2
340
14
 93
        0
 40
0.045
309
GRIDFORMAT_END
 95
        4
302
GRIDFORMAT
  1
GRIDFORMAT_BEGIN
 90
        0
 91
        1
 62
     0
 92
       -2
340
14
 93
        0
 40
0.045
309
GRIDFORMAT_END
 95
        8
302
GRIDFORMAT
  1
GRIDFORMAT_BEGIN
 90
        0
 91
        1
 62
     0
 92
       -2
340
14
 93
        0
 40
0.045
309
GRIDFORMAT_END
 95
       16
302
GRIDFORMAT
  1
GRIDFORMAT_BEGIN
 90
        0
 91
        1
 62
     0
 92
       -2
340
14
 93
        0
 40
0.045
309
GRIDFORMAT_END
 95
       32
302
GRIDFORMAT
  1
GRIDFORMAT_BEGIN
 90
        0
 91
        1
 62
     0
 92
       -2
340
14
 93
        0
 40
0.045
309
GRIDFORMAT_END
309
TABLEFORMAT_END
  1
CELLSTYLE_BEGIN
 90
        1
 91
        1
300
_TITLE
309
CELLSTYLE_END
300
CELLSTYLE
  1
TABLEFORMAT_BEGIN
 90
        5
170
     1
 91
        0
 92
        0
 62
   257
 93
        1
300
CONTENTFORMAT
  1
CONTENTFORMAT_BEGIN
 90
        0
 91
        0
 92
        4
 93
        0
300

 40
0.0
140
1.0
 94
        5
 62
     0
340
11
144
0.18
309
CONTENTFORMAT_END
171
     1
301
MARGIN
  1
CELLMARGIN_BEGIN
 40
0.06
 40
0.06
 40
0.06
 40
0.06
 40
0.06
 40
0.06
309
CELLMARGIN_END
 94
        6
 95
        1
302
GRIDFORMAT
  1
GRIDFORMAT_BEGIN
 90
        0
 91
        1
 62
     0
 92
       -2
340
14
 93
        0
 40
0.045
309
GRIDFORMAT_END
 95
        2
302
GRIDFORMAT
  1
GRIDFORMAT_BEGIN
 90
        0
 91
        1
 62
     0
 92
       -2
340
14
 93
        0
 40
0.045
309
GRIDFORMAT_END
 95
        4
302
GRIDFORMAT
  1
GRIDFORMAT_BEGIN
 90
        0
 91
        1
 62
     0
 92
       -2
340
14
 93
        0
 40
0.045
309
GRIDFORMAT_END
 95
        8
302
GRIDFORMAT
  1
GRIDFORMAT_BEGIN
 90
        0
 91
        1
 62
     0
 92
       -2
340
14
 93
        0
 40
0.045
309
GRIDFORMAT_END
 95
       16
302
GRIDFORMAT
  1
GRIDFORMAT_BEGIN
 90
        0
 91
        1
 62
     0
 92
       -2
340
14
 93
        0
 40
0.045
309
GRIDFORMAT_END
 95
       32
302
GRIDFORMAT
  1
GRIDFORMAT_BEGIN
 90
        0
 91
        1
 62
     0
 92
       -2
340
14
 93
        0
 40
0.045
309
GRIDFORMAT_END
309
TABLEFORMAT_END
  1
CELLSTYLE_BEGIN
 90
        2
 91
        1
300
_HEADER
309
CELLSTYLE_END
300
CELLSTYLE
  1
TABLEFORMAT_BEGIN
 90
        5
170
     1
 91
        0
 92
        0
 62
   257
 93
        1
300
CONTENTFORMAT
  1
CONTENTFORMAT_BEGIN
 90
        0
 91
        0
 92
        4
 93
        0
300

 40
0.0
140
1.0
 94
        2
 62
     0
340
11
144
0.18
309
CONTENTFORMAT_END
171
     1
301
MARGIN
  1
CELLMARGIN_BEGIN
 40
0.06
 40
0.06
 40
0.06
 40
0.06
 40
0.06
 40
0.06
309
CELLMARGIN_END
 94
        6
 95
        1
302
GRIDFORMAT
  1
GRIDFORMAT_BEGIN
 90
        0
 91
        1
 62
     0
 92
       -2
340
14
 93
        0
 40
0.045
309
GRIDFORMAT_END
 95
        2
302
GRIDFORMAT
  1
GRIDFORMAT_BEGIN
 90
        0
 91
        1
 62
     0
 92
       -2
340
14
 93
        0
 40
0.045
309
GRIDFORMAT_END
 95
        4
302
GRIDFORMAT
  1
GRIDFORMAT_BEGIN
 90
        0
 91
        1
 62
     0
 92
       -2
340
14
 93
        0
 40
0.045
309
GRIDFORMAT_END
 95
        8
302
GRIDFORMAT
  1
GRIDFORMAT_BEGIN
 90
        0
 91
        1
 62
     0
 92
       -2
340
14
 93
        0
 40
0.045
309
GRIDFORMAT_END
 95
       16
302
GRIDFORMAT
  1
GRIDFORMAT_BEGIN
 90
        0
 91
        1
 62
     0
 92
       -2
340
14
 93
        0
 40
0.045
309
GRIDFORMAT_END
 95
       32
302
GRIDFORMAT
  1
GRIDFORMAT_BEGIN
 90
        0
 91
        1
 62
     0
 92
       -2
340
14
 93
        0
 40
0.045
309
GRIDFORMAT_END
309
TABLEFORMAT_END
  1
CELLSTYLE_BEGIN
 90
        3
 91
        2
300
_DATA
309
CELLSTYLE_END
  0
ENDSEC
  0
SECTION
  2
THUMBNAILIMAGE
 90
    16364
310
28000000B4000000550000000100080000000000C43B000000000000000000000001000000010000000000000000FF0000FFFF0000FF0000FFFF0000FF000000FF00FF00FFFFFF0080808000C0C0C0000000FF007F7FFF000000CC006666CC00000099004C4C990000007F003F3F7F0000004C0026264C00003FFF007F9FFF
310
000033CC00667FCC00002699004C5F9900001F7F003F4F7F0000134C00262F4C00007FFF007FBFFF000066CC006699CC00004C99004C729900003F7F003F5F7F0000264C0026394C0000BFFF007FDFFF000099CC0066B2CC00007299004C859900005F7F003F6F7F0000394C0026424C0000FFFF007FFFFF0000CCCC0066CC
310
CC00009999004C999900007F7F003F7F7F00004C4C00264C4C0000FFBF007FFFDF0000CC990066CCB200009972004C998500007F5F003F7F6F00004C3900264C420000FF7F007FFFBF0000CC660066CC990000994C004C997200007F3F003F7F5F00004C2600264C390000FF3F007FFF9F0000CC330066CC7F00009926004C
310
995F00007F1F003F7F4F00004C1300264C2F0000FF00007FFF7F0000CC000066CC6600009900004C994C00007F00003F7F3F00004C0000264C26003FFF00009FFF7F0033CC00007FCC6600269900005F994C001F7F00004F7F3F00134C00002F4C26007FFF0000BFFF7F0066CC000099CC66004C99000072994C003F7F0000
310
5F7F3F00264C0000394C2600BFFF0000DFFF7F0099CC0000B2CC66007299000085994C005F7F00006F7F3F00394C0000424C2600FFFF0000FFFF7F00CCCC0000CCCC66009999000099994C007F7F00007F7F3F004C4C00004C4C2600FFBF0000FFDF7F00CC990000CCB266009972000099854C007F5F00007F6F3F004C3900
310
004C422600FF7F0000FFBF7F00CC660000CC996600994C000099724C007F3F00007F5F3F004C2600004C392600FF3F0000FF9F7F00CC330000CC7F660099260000995F4C007F1F00007F4F3F004C1300004C2F2600FF000000FF7F7F00CC000000CC66660099000000994C4C007F0000007F3F3F004C0000004C262600FF00
310
3F00FF7F9F00CC003300CC667F0099002600994C5F007F001F007F3F4F004C0013004C262F00FF007F00FF7FBF00CC006600CC66990099004C00994C72007F003F007F3F5F004C0026004C263900FF00BF00FF7FDF00CC009900CC66B20099007200994C85007F005F007F3F6F004C0039004C264200FF00FF00FF7FFF00CC
310
00CC00CC66CC0099009900994C99007F007F007F3F7F004C004C004C264C00BF00FF00DF7FFF009900CC00B266CC0072009900854C99005F007F006F3F7F0039004C0042264C007F00FF00BF7FFF006600CC009966CC004C009900724C99003F007F005F3F7F0026004C0039264C003F00FF009F7FFF003300CC007F66CC00
310
260099005F4C99001F007F004F3F7F0013004C002F264C00333333005B5B5B0084848400ADADAD00D6D6D600FFFFFF0000000000000000000000000000000000000000000000000000000000000000000000000000000000000000000000000000000000000000000000000000000000000000000000000000000000000000
310
00000000000000000000000000000000000000000000000000000000000000000000000000000000000000000000000000000000000000000000000000000000000000000000000000000000000000000000000000000000000000000000000000000000000000000000000000000000000000000000000000000000000000
310
00000000000000000000000000000000000000000000000000000000000000000000000000000000000000000000000000000000000000000000000000000000000000000000000000000000000000000000000000000000000000000000000000000000000000000000000000000000000000000000000000000000000000
310
00000000000000000000000000000000000000000000000000000000000000000000000000000000000000000000000000000000000000000000000000000000000000000000000000000000000000000000000000000000000000000000000000000000000000000000000000000000000000000000000000000000000000
310
00000000000000000000000000000000000000000000000000000000000000000000000000000000000000000000000000000000000000000000000000000000000000000000000000000000000000000000000000000000000000000000000000000000000000000000000000000000000000000000000000000000000000
310
00000000000000000000000000000000000000000000000000000000000000000000000000000000000000000000000000000000000000000000000000000000000000000000000000000000000000000000000000000000000000000000000000000000000000000000000000000000000000000000000000000000000000
310
00000000000000000000000000000000000000000000000000000000000000000000000000000000000000000000000000000000000000000000000000000000000000000000000000000000000000000000000000000000000000000000000000000000000000000000000000000000000000000000000000000000000000
310
00000000000000000000000000000000000000000000000000000000000000000000000000000000000000000000000000000000000000000000000000000000000000000000000000000000000000000000000000000000000000000000000000000000000000000000000000000000000000000000000000000000000000
310
00000000000000000000000000000000000000000000000000000000000000000000000000000000000000000000000000000000000000000000000000000000000000000000000000000000000000000000000000000000000000000000000000000000000000000000000000000000000000000000000000000000000000
310
00000000000000000000000000000000000000000000000000000000000000000000000000000000000000000000000000000000000000000000000000000000000000000000000000000000000000000000000000000000000000000000000000000000000000000000000000000000000000000000000000000000000000
310
00000000000000000000000000000000000000000000000000000000000000000000000000000000000000000000000000000000000000000000000000000000000000000000000000000000000000000000000000000000000000000000000000000000000000000000000000000000000000000000000000000000000000
310
00000000000000000000000000000000000000000000000000000000000000000000000000000000000000000000000000000000000000000000000000000000000000000000000000000000000000000000000000000000000000000000000000000000000000000000000000000000000000000000000000000000000000
310
00000000000000000000000000000000000000000000000000000000000000000000000000000000000000000000000000000000000000000000000000000000000000000000000000000000000000000000000000000000000000000000000000000000000000000000000000000000000000000000000000000000000000
310
00000000000000000000000000000000000000000000000000000000000000000000000000000000000000000000000000000000000000000000000000000000000000000000000000000000000000000000000000000000000000000000000000000000000000000000000000000000000000000000000000000000000000
310
00000000000000000000000000000000000000000000000000000000000000000000000000000000000000000000000000000000000000000000000000000000000000000000000000000000000000000000000000000000000000000000000000000000000000000000000000000000000000000000000000000000000000
310
00000000000000000000000000000000000000000000000000000000000000000000000000000000000000000000000000000000000000000000000000000000000000000000000000000000000000000000000000000000000000000000000000000000000000000000000000000000000000000000000000000000000000
310
00000000000000000000000000000000000000000000000000000000000000000000000000000000000000000000000000000000000000000000000000000000000000000000000000000000000000000000000000000000000000000000000000000000000000000000000000000000000000000000000000000000000000
310
00000000000000000000000000000000000000000000000000000000000000000000000000000000000000000000000000000000000000000000000000000000000000000000000000000000000000000000000000000000000000000000000000000000000000000000000000000000000000000000000000000000000000
310
00000000000000000000000000000000000000000000000000000000000000000000000000000000000000000000000000000000000000000000000000000000000000000000000000000000000000000000000000000000000000000000000000000000000000000000000000000000000000000000000000000000000000
310
00000000000000000000000000000000000000000000000000000000000000000000000000000000000000000000000000000000000000000000000000000000000000000000000000000000000000000000000000000000000000000000000000000000000000000000000000000000000000000000000000000000000000
310
00000000000000000000000000000000000000000000000000000000000707070707070707070707070707070707070707070707070707070707070707070707070707070707070707070707070707070707070707070707070707070707070707070707070707070707070707000000000000000000000000000000000000
310
00070707070707070707070707070707070707070707070707070707070707070707070707070707070707070707070707070707070707070707070707070707070707070707070707070707070707070700070000000000000000000000000000000000000000000000000000000000000000000000000000000000000000
310
00000000000000000000000000000000070000000707070707070707070707070000070000000000000000000000000000000000000007000000000000000000000000000000000000000000000000000000000000000000000000000000000000000000000000000000000000000000000000070000070707070707070707
310
07070700000007000700000000070707070707070707070707070707070707070707070707070707070707070707070707070700000000000000000000000000000000000007000000070707070707070707070700000007000000000000000000000000000000000000000700000007070707070707070707070707070707
310
07070707070707070707070707070707070707070707070707070000000000000000000000000000000700000007070707070707070707070000000700070000000007000000000007000000000000000000000000000000000000000000000000000000000000070000000000000000000000000000000000000707070707
310
07070707070707070707070707070000000000000000000000000000000000000007000000070000000000070700000000000000000000000000000000000000000000000000000000000000000007000000000000000000000000000000070707070707070707070707070707070707070007000000000700070707000700
310
07070707070707070707070707070707070707070707070707070000000700000000000000000000000000000000000007070707070707070707070707070707000007000000000000000000000000000000000000000700000007000707070007070007070707070707070707070707070707070707070707070707070707
310
07000000070000000000000000000000000000000707070707070707070707070707070000000700070000000007070707070707070707070707070707070707070707070707070707070707070707070707070000000000000000000000000000000000000707070707070707070707070707070707070700000000000000
310
00000000000000000000000007000000070707070707070707070707070707070707070707070707070707070707070707070707070707070707000000000000000000000000000000070707070707070707070707070707070707070007000000000707070707070707070707070707070707070707070707070707070707
310
07070707070707070700000000000000000000000000000000000007070707070707070707070707070707070707000000000000000000000000000000000000000700000007070707070707070707070707070707070707070707070707070707070707070707070707070707070700000000000000000000000000000007
310
07070707070707070707070707070707070700070000000007000707070007000007000000070000000700000007000000070000000700000007000000070000000000000000000000000000000000000707070707000000000707070707000000000700000000000000000000000000000000000000070000000700070707
310
00070700000007000000070000000700000007000000070000000700000007000000000007000000000000000000000000000000070707070700000007070707070000000000070007000000000700000000000700000000000000000000000000000000000000000000000000000000000007000000000000000000000000
310
00000000000007070707070707070707070707070707070707000000000000000000000000000000000000000700000007000000000007070000000000000000000000000000000000000000000000000000000000000000000700000000000000000000000000000007070707070707070707070707070707070707000700
310
00000007070707070707070707070707070707070707070707070707070707070707070707070707070000000000000000000000000000000000000707070707000007070707070707070707000700000000000000000000000000000000000000070000000707070707070707070707070707070707070707070707070707
310
07070707070707070707070707070707000000000000000000000000000000070707070700070707070707070707070000070007000000000707070707000700000700000007000000070000000700000007000000070000000700000007000000000000000000000000000000000000070707070707070707070707070707
310
07070707000000000000000000000000000000000000000700000007000707070707070000000700000007000000070000000700000007000000070000000700000000000700000000000000000000000000000007070707070707070707070707070707070707000700000000070000000000070000070000000700000007
310
00000007000000070000000700000007000000070000000000000000000000000000000000000707070707000000070707070707070000000700000000000000000000000000000000000000070000000700000000000707000000070000000700000007000000070000000700000007000000070000000000070000000000
310
00000000000000000000070707070700000007070707070707000000070007000000000707070707070707070707070707070707070707070707070707070707070707070707070707000000000000000000000000000000000000070707070707070707070707070707070707070000000000000000000000000000000000
310
00000700000007070707070707070707070707070707070707070707070707070707070707070707070707070707070700000000000000000000000000000007070707070707070707070707070707070707000700000000070707070707070000000000000700000007000000070000000700000007000000070000000700
310
00000000000000000000000000000000000000000000000000000000000000000000000700000000000000000000000000000000000000070000000707070707070707000000000000000700000007000000070000000700000007000000070000000000070000000000000000000000000000000000000000000000000000
310
00000000000000070007000000000700000000000700000700000007000000070000000700000007000000070000000700000007000000000000000000000000000000000000000000000000000000000000000000000000070000000000000000000000000000000000000007000000070000000000070700000007000000
310
07000000070000000700000007000000070000000700000000000700000000000000000000000000000000000000000000000000000000000000000007000700000000070707070707070707070707070707070707070707070707070707070707070707070707070700000000000000000000000000000000000000000000
310
00000000000000000000000000000700000000000000000000000000000000000000070000000707070707070707070707070707070707070707070707070707070707070707070707070707070707070000000000000000000000000000000000000000000000000000000000000000000700070000000007070707070707
310
07070707070707070707070707070707070707070707070707070707070707000000000000000000000000000000000000000000000000000000000000000000000000070000000000000000000000000000000000000007000000070707070707070707070707070707070707070707070707070707070707070707070707
310
07070707070700000000000000000000000000000000000000000000000000000000000000000007000700000000070707070700070000070000000700000007000000070000000700000007000000070000000700000000000000000000000000000000000000000000000000000000000000000000000007000000000000
310
00000000000000000000000000070000000700070707070707000000070000000700000007000000070000000700000007000000070000000000070000000000000000000000000000000000000000000000000000000000000000000700070000000007000000000007000007000000070000000700000007000000070000
310
00070000000700000007000000000000000000000000000000000000000000000000000000000000000000000000070000000000000000000000000000000000000007000000070000000000070700000007000000070000000700000007000000070000000700000007000000000007000000000000000000000000000000
310
00000000000000000000000000000000000007000700000000070707070707070707070707070707070707070707070707070707070707070707070707070700000000000000000000000000000000000000000000000000000000000000000000000007000000000000000000000000000000000000000700000007070707
310
07070707070707070707070707070707070707070707070707070707070707070707070707070000000000000000000000000000000000000000000000000000000000000000000700070000000007070707070007000000000000000000000000000000000000000000000000000000000000070000000000000000000000
310
00000000000000000000000000000000000000000000000000070000000000000000000000000000000000000007000000070007070707070700000000000000000000000000000000000000000000000000000000000000000007000000000000000000000000000000000000000000000000000000000000000000070007
310
00000000070000000000070000000000000000000000000000000000000000000000000000000000000700000000000000000000000000000000000000000000000000000000000000000000000007000000000000000000000000000000000000000700000007000000000007070000000000000000000000000000000000
310
00000000000000000000000000000000070000000000000000000000000000000000000000000000000000000000000000000700070000000007070707070707070707070707070707070707070707070707070707070707070707070707070000000000000000000000000000000000000000000000000000000000000000
310
00000000070000000000000000000000000000000000000007000000070707070707070707070707070707070707070707070707070707070707070707070707070707070707000000000000000000000000000000000000000000000000000000000000000000070007000000000700070707000700000000000000000000
310
00000000000000000000000000000000000000000700000000000000000000000000000000000000000000000000000000000000000000000007000000000000000000000000000000000000000700000007000707070007070000000000000000000000000000000000000000000000000000000000000000000700000000
310
00000000000000000000000000000000000000000000000000000000000700070000000007000000000007000000000000000000000000000000000000000000000000000000000000070000000000000000000000000000000000000000000000000000000000000000000000000700000000000000000000000000000000
310
00000007000000070000000000070700000000000000000000000000000000000000000000000000000000000000000007000000000000000000000000000000000000000000000000000000000000000000070007000000000707070707070707070707070707070707070707070707070707070707070707070707070707
310
00000000000000000000000000000000000000000000000000000000000000000000000007000000000000000000000000000000000000000700000007070707070707070707070707070707070707070707070707070707070707070707070707070707070700000000000000000000000000000000000000000000000000
310
00000000000000000700070000000007000000000007000000000000000000000000000000000000000000000000000000000000070000000000000000000000000000000000000000000000000000000000000000000000000700000000000000000000000000000000000000070000000700000000000707000000000000
310
00000000000000000000000000000000000000000000000000000007000000000000000000000000000000000000000000000000000000000000000000070007000000000700070707000700000000000000000000000000000000000000000000000000000000000007000000000000000000000000000000000000000000
310
00000000000000000000000000000007000000000000000000000000000000000000000700000007000707070007070000000000000000000000000000000000000000000000000000000000000000000700000000000000000000000000000000000000000000000000000000000000000007000700000000070707070707
310
07070707070707070707070707070707070707070707070707070707070707070000000000000000000000000000000000000000000000000000000000000000000000000700000000000000000000000000000000000000070000000707070707070707070707070707070707070707070707070707070707070707070707
310
07070707070707000000000000000000000000000000000000000000000000000000000000000000070007000000000707070707070707070707070707070707070707070707070707070707070707070707070707000000000000000000000000000000000000000000000000000000000000000000000000070000000000
310
00000000000000000000000000000700000007070707070707070707070707070707070707070707070707070707070707070707070707070707070700000000000000000000000000000000000000000000000000000000000000000007000700000000070007070700070000000000000000000000000000000000000000
310
00000000000000000000070000000000000000000000000000000000000000000000000000000000000000000000000700000000000000000000000000000000000000070000000700070707000707000000000000000000000000000000000000000000000000000000000000000000070000000000000000000000000000
310
00000000000000000000000000000000000000070007000000000700000000000700000000000000000000000000000000000000000000000000000000000007000000000000000000000000000000000000000000000000000000000000000000000000070000000000000000000000000000000000000007000000070000
310
00000007070000000000000000000000000000000000000000000000000000000000000000000700000000000000000000000000000000000000000000000000000000000000000007000700000000070707070707070707070707070707070707070707070707070707070707070707070707070700000000000000000000
310
00000000000000000000000000000000000000000000000000000700000000000000000000000000000000000000070000000707070707070707070707070707070707070707070707070707070707070707070707070707070707070000000000000000000000000000000000000000000000000000000000000000000700
310
07000000000707070707070707070707070707070707070707070707070707070707070707070707070707000000000000000000000000000000000000000000000000000000000000000000000000070000000000000000000000000000000000000007000000070707070707070707070707070707070707070707070707
310
07070707070707070707070707070707070700000000000000000000000000000000000000000000000000000000000000000007000700000000000007070000070000070000000700000007000000070000070000000700000007000000000000000000000000000000000000000000000000000000000000000000000000
310
00000000000700000000000000000000000000000000000000070000000000070700000007000000070000000700000007000000070000000700000007000000070000000000000000000000000000000000000000000000000000000000000000000000000000000700070000000000000707000707000007000000070000
310
00070000000700000700000007000000070000000000000000000000000000000000000000000000000000000000000000000000000000000000070000000000000000000000000000000000000007000000000000070000070700000007000000070000000700000007000000070000000700000007000000000000000000
310
00000000000000000000000000000000000000000000000000000000000007000700000000000007070000070000070000000700000007000000070000070000000700000007000000000000000000000000000000000000000000000000000000000000000000000000000000000007000000000000000000000000000000
310
00000000070000000000000707000007000000070000000700000007000000070000000700000007070707070000000000000000000000000000000000000000000000000000000000000000000000000000000700070000000000000707000707000007000000070000000700000007000007000000070000070700000000
310
00000000000000000000000000000000000000000000000000000000000000000000000000070000000000000000000000000000000000000007000000000000070700070700070707000000070000000700000707070707070700000707070707070700000000000000000000000000000000000000000000000000000000
310
00000000000000000007000700000000000000070000070007070707000700000007000000070000070000000700000707070000000000000000000000000000000000000000000000000000000000000000000000000000000007000000000000000000000000000000000000000700000000000007000000070000070707
310
07070707000007000007000000000007000007070700000000000000000000000000000000000000000000000000000000000000000000000000000000000700070000000000000007000707070707070700070000000707070707000007000000070007070000000000000000000000000000000000000000000000000000
310
00000000000000000000000000000000070000000000000000000000000000000000000007000000000000070000070700000007070007070707070707000707070707070707070707000000000000000000000000000000000000000000000000000000000000000000000000000000000000070007000000000000000000
310
00070000070707070707070707070707070707070707070707070000000000000000000000000000000000000000000000000000000000000000000000000000000000000007000000000000000000000000000000000000000700000000000000000000070000000707070707070707070707070007070000070707000700
310
00000000000000000000000000000000000000000000000000000000000000000000000000000000000700070000000000000000000707000007070707070707000000000000000000000700000007000000000000000000000000000000000000000000000000000000000000000000000000000000000000000700000000
310
00000000000000000000000000000007000000000000000000070700000007000000000707000000000000000000000700000007000000000000000000000000000000000000000000000000000000000000000000000000000000000000070007000000000000000000000700000707070000000000000000000000000000
310
07000000070000000000000000000000000000000000000000000000000000000000000000000000000000000000000007000000000000000000000000000000000000000700000000000000000000070000000700000000000000000000000000070707070700070700000000000000000000000000000000000000000000
310
00000000000000000000000000000000000000000700070000000000000000070707000000070700000000000000000000000000000707070007000000000000000000000000000000000000000000000000000000000000000000000000000000000000000700000000000000000000000000000000000000070000000000
310
00000007070700000000000000000000000000000000000000000000000000000000000000000000000000000000000000000000000000000000000000000000000000000000000000070007000000000000000000070700000000000000000000000000000000000000070000000700000000000000000000000000000000
310
00000000000000000000000000000000000000000000000000000007000000000000000000000000000000000000000700000000000000000007070000000000000000000000000000000000000000000000000000000000000000000000000000000000000000000000000000000000000000000000000000000000000007
310
00070000000000000000000007000000000000000000000000000000000000000700000007000000000000000000000000000000000000000000000000000000000000000000000000000000000000000700000000000000000000000000000000000000070000000000000000000007000000000000000000000000000000
310
00000000000000000000000000000000000000000000000000000000000000000000000000000000000000000000000000000000070007000000000000000000070700000000000000000000000000000000000000070707070700000000000000000000000000000000000000000000000000000000000000000000000000
310
00000000000007000000000000000000000000000000000000000700000000000000000007070000000000000000000000000000000000000000000000000000000000000000000000000000000000000000000000000000000000000000000000000000000000000007000700000000000000000000070000000000000000
310
00000000000000000000000000000000000000000000000000000000000000000000000000000000000000000000000000000000000000000000000700000000000000000000000000000000000000070000000000000000000007000000000000000000000000000000000000000000000000000000000000000000000000
310
00000000000000000000000000000000000000000000000000000000000000070007000000000000000000070700000000000000000000000000000000000000000000000000000000000000000000000000000000000000000000000000000000000000000000000000000000000000070000000000000000000000000000
310
00000000000700000000000000000007070000000000000000000000000000000000000000000000000000000000000000000000000000000000000000000000000000000000000000000000000000000000000007000700000000000000000000070000000000000000000000000000000000000000000000000000000000
310
00000000000000000000000000000000000000000000000000000000000000000000000000000700000000000000000000000000000000000000070000000000000000000007000000000000000000000000000000000000000000000000000000000000000000000000000000000000000000000000000000000000000000
310
00000000000000000000070007000000000000000000070700000000000000000000000000000000000000000000000000000000000000000000000000000000000000000000000000000000000000000000000000000000000000070000000000000000000000000000000000000007000000000000000000070700000000
310
00000000000000000000000000000000000000000000000000000000000000000000000000000000000000000000000000000000000000000000000000000007000700000000000000000000070000000000000000000000000000000000000000000000000000000000000000000000000000000000000000000000000000
310
00000000000000000000000000000000000700000000000000000000000000000000000000070000000000000000000007000000000000000000000000000000000000000000000000000000000000000000000000000000000000000000000000000000000000000000000000000000000000000700070000000000000000
310
07070700000000000000000000000000000000000000000000000000000000000000000000000000000000000000000000000000000000000000000000000000000000000000070000000000000000000000000000000000000007000000000000000007070700000000000000000000000000000000000000000000000000
310
00000000000000000000000000000000000000000000000000000000000000000000000000000000000007000700000000000000000000000000000000000000000000000000000000000000000000000000000000000000000000000000000000000000000000000000000000000000000000000000000000000007000000
310
00000000000000000000000000000000070000000000000000000000000000000000000000000000000000000000000000000000000000000000000000000000000000000000000000000000000000000000000000000000000000000000000700070000000000000000000000000000000000000000000000000000000000
310
00000000000000000000000000000000000000000000000000000000000000000000000000000000000000000000000000070000000000000000000000000000000000000007000000000000000000000000000000000000000000000000000000000000000000000000000000000000000000000000000000000000000000
310
00000000000000000000000000000000000000000007000707070707070707070707070707070707070707070707070707070707070707070707070707070707070707070707070707070707070707070707070707070707070707070707070707070707070707000000000000000000000000000000000000000707070707
310
07070707070707070707070707070707070707070707070707070707070707070707070707070707070707070707070707070707070707070707070707070707070707070707070707070700000000000000000000000000000000000000000000000000000000000000000000000000000000000000000000000000000000
310
00000000000000000000000000000000000000000000000000000000000000000000000000000000000000000000000000000000000000000000000000000000000000000000000000000000000000000000000000000000000000000000000000000000000000000000000000000000000000000000000000000000000000
310
00000000000000000000000000000000000000000000000000000000000000000000000000000000000000000000000000000000000000000000000000000000000000000000000000000000000000000000000000000000000000000000000000000000000000000000000000000000000000000000000000000000000000
310
00000000000000000000000000000000000000000000000000000000000000000000000000000000000000000000000000000000000000000000000000000000000000000000000000000000000000000000000000000000000000000000000000000000000000000000000000000000000000000000000000000000000000
310
00000000000000000000000000000000000000000000000000000000000000000000000000000000000000000000000000000000000000000000000000000000000000000000000000000000000000000000000000000000000000000000000000000000000000000000000000000000000000000000000000000000000000
310
00000000000000000000000000000000000000000000000000000000000000000000000000000000000000000000000000000000000000000000000000000000000000000000000000000000000000000000000000000000000000000000000000000000000000000000000000000000000000000000000000000000000000
310
00000000000000000000000000000000000000000000000000000000000000000000000000000000000000000000000000000000000000000000000000000000000000000000000000000000000000000000000000000000000000000000000000000000000000000000000000000000000000000000000000000000000000
310
00000000000000000000000000000000000000000000000000000000000000000000000000000000000000000000000000000000000000000000000000000000000000000000000000000000000000000000000000000000000000000000000000000000000000000000000000000000000000000000000000000000000000
310
00000000000000000000000000000000000000000000000000000000000000000000000000000000000000000000000000000000000000000000000000000000000000000000000000000000000000000000000000000000000000000000000000000000000000000000000000000000000000000000000000000000000000
310
00000000000000000000000000000000000000000000000000000000000000000000000000000000000000000000000000000000000000000000000000000000000000000000000000000000000000000000000000000000000000000000000000000000000000000000000000000000000000000000000000000000000000
310
00000000000000000000000000000000000000000000000000000000000000000000000000000000000000000000000000000000000000000000000000000000000000000000000000000000000000000000000000000000000000000000000000000000000000000000000000000000000000000000000000000000000000
310
00000000000000000000000000000000000000000000000000000000000000000000000000000000000000000000000000000000000000000000000000000000000000000000000000000000000000000000000000000000000000000000000000000000000000000000000000000000000000000000000000000000000000
310
00000000000000000000000000000000000000000000000000000000000000000000000000000000000000000000000000000000000000000000000000000000000000000000000000000000000000000000000000000000000000000000000000000000000000000000000000000000000000000000000000000000000000
310
00000000000000000000000000000000000000000000000000000000000000000000000000000000000000000000000000000000000000000000000000000000000000000000000000000000000000000000000000000000000000000000000000000000000000000000000000000000000000000000000000000000000000
310
00000000000000000000000000000000000000000000000000000000000000000000000000000000000000000000000000000000000000000000000000000000000000000000000000000000000000000000000000000000000000000000000000000000000000000000000000000000000000000000000000000000000000
310
00000000000000000000000000000000000000000000000000000000000000000000000000000000000000000000000000000000000000000000000000000000000000000000000000000000000000000000000000000000000000000000000000000000000000000000000000000000000000000000000000000000000000
310
00000000000000000000000000000000000000000000000000000000000000000000000000000000000000000000000000000000000000000000000000000000000000000000000000000000000000000000000000000000000000000000000000000000000000000000000000000000000000000000000000000000000000
310
00000000000000000000000000000000000000000000000000000000000000000000000000000000000000000000000000000000000000000000000000000000000000000000000000000000000000000000000000000000000000000000000000000000000000000000000000000000000000000000000000000000000000
310
00000000000000000000000000000000000000000000000000000000000000000000000000000000000000000000000000000000000000000000000000000000000000000000000000000000000000000000000000000000000000000000000000000000000000000000000000000000000000000000000000000000000000
310
00000000000000000000000000000000000000000000000000000000000000000000000000000000000000000000000000000000000000000000000000000000000000000000000000000000000000000000000000000000000000000000000000000000000000000000000000000000000000000000000000000000000000
310
00000000000000000000000000000000000000000000000000000000000000000000000000000000000000000000000000000000000000000000000000000000000000000000000000000000000000000000000000000000000000000000000000000000000000000000000000000000000000000000000000000000000000
310
000000000000000000000000000000000000000000000000000000000000000000000000000000000000000000000000000000000000000000000000000000000000000000000000000000000000000000000000000000000000000000000000000000000000000000000000
  0
ENDSEC
  0
EOF
