  0
SECTION
  2
HEADER
  9
$ACADVER
  1
AC1032
  9
$ACADMAINTVER
 90
        4
  9
$DWGCODEPAGE
  3
ANSI_932
  9
$REQUIREDVERSIONS
160
                 0
  9
$LASTSAVEDBY
  1
12
  9
$INSBASE
 10
0.0
 20
0.0
 30
0.0
  9
$EXTMIN
 10
0.0
 20
0.0
 30
0.0
  9
$EXTMAX
 10
2603.0
 20
554.0
 30
0.0
  9
$LIMMIN
 10
0.0
 20
0.0
  9
$LIMMAX
 10
801.0
 20
554.0
  9
$ORTHOMODE
 70
     0
  9
$REGENMODE
 70
     1
  9
$FILLMODE
 70
     1
  9
$QTEXTMODE
 70
     0
  9
$MIRRTEXT
 70
     1
  9
$LTSCALE
 40
1.0
  9
$ATTMODE
 70
     1
  9
$TEXTSIZE
 40
0.2
  9
$TRACEWID
 40
0.05
  9
$TEXTSTYLE
  7
Standard
  9
$CLAYER
  8
0
  9
$CELTYPE
  6
ByLayer
  9
$CECOLOR
 62
   256
  9
$CELTSCALE
 40
1.0
  9
$DISPSILH
 70
     0
  9
$DIMSCALE
 40
1.0
  9
$DIMASZ
 40
0.18
  9
$DIMEXO
 40
0.0625
  9
$DIMDLI
 40
0.38
  9
$DIMRND
 40
0.0
  9
$DIMDLE
 40
0.0
  9
$DIMEXE
 40
0.18
  9
$DIMTP
 40
0.0
  9
$DIMTM
 40
0.0
  9
$DIMTXT
 40
0.18
  9
$DIMCEN
 40
0.09
  9
$DIMTSZ
 40
0.0
  9
$DIMTOL
 70
     0
  9
$DIMLIM
 70
     0
  9
$DIMTIH
 70
     1
  9
$DIMTOH
 70
     1
  9
$DIMSE1
 70
     0
  9
$DIMSE2
 70
     0
  9
$DIMTAD
 70
     0
  9
$DIMZIN
 70
     0
  9
$DIMBLK
  1

  9
$DIMASO
 70
     1
  9
$DIMSHO
 70
     1
  9
$DIMPOST
  1

  9
$DIMAPOST
  1

  9
$DIMALT
 70
     0
  9
$DIMALTD
 70
     2
  9
$DIMALTF
 40
25.4
  9
$DIMLFAC
 40
1.0
  9
$DIMTOFL
 70
     0
  9
$DIMTVP
 40
0.0
  9
$DIMTIX
 70
     0
  9
$DIMSOXD
 70
     0
  9
$DIMSAH
 70
     0
  9
$DIMBLK1
  1

  9
$DIMBLK2
  1

  9
$DIMSTYLE
  2
Standard
  9
$DIMCLRD
 70
     0
  9
$DIMCLRE
 70
     0
  9
$DIMCLRT
 70
     0
  9
$DIMTFAC
 40
1.0
  9
$DIMGAP
 40
0.09
  9
$DIMJUST
 70
     0
  9
$DIMSD1
 70
     0
  9
$DIMSD2
 70
     0
  9
$DIMTOLJ
 70
     1
  9
$DIMTZIN
 70
     0
  9
$DIMALTZ
 70
     0
  9
$DIMALTTZ
 70
     0
  9
$DIMUPT
 70
     0
  9
$DIMDEC
 70
     4
  9
$DIMTDEC
 70
     4
  9
$DIMALTU
 70
     2
  9
$DIMALTTD
 70
     2
  9
$DIMTXSTY
  7
Standard
  9
$DIMAUNIT
 70
     0
  9
$DIMADEC
 70
     0
  9
$DIMALTRND
 40
0.0
  9
$DIMAZIN
 70
     0
  9
$DIMDSEP
 70
    46
  9
$DIMATFIT
 70
     3
  9
$DIMFRAC
 70
     0
  9
$DIMLDRBLK
  1

  9
$DIMLUNIT
 70
     2
  9
$DIMLWD
 70
    -2
  9
$DIMLWE
 70
    -2
  9
$DIMTMOVE
 70
     0
  9
$DIMFXL
 40
1.0
  9
$DIMFXLON
 70
     0
  9
$DIMJOGANG
 40
0.7853981633974483
  9
$DIMTFILL
 70
     0
  9
$DIMTFILLCLR
 70
     0
  9
$DIMARCSYM
 70
     0
  9
$DIMLTYPE
  6

  9
$DIMLTEX1
  6

  9
$DIMLTEX2
  6

  9
$DIMTXTDIRECTION
 70
     0
  9
$LUNITS
 70
     2
  9
$LUPREC
 70
     4
  9
$SKETCHINC
 40
0.1
  9
$FILLETRAD
 40
0.5
  9
$AUNITS
 70
     0
  9
$AUPREC
 70
     0
  9
$MENU
  1
.
  9
$ELEVATION
 40
0.0
  9
$PELEVATION
 40
0.0
  9
$THICKNESS
 40
0.0
  9
$LIMCHECK
 70
     0
  9
$CHAMFERA
 40
0.0
  9
$CHAMFERB
 40
0.0
  9
$CHAMFERC
 40
0.0
  9
$CHAMFERD
 40
0.0
  9
$SKPOLY
 70
     0
  9
$TDCREATE
 40
2459645.884395301
  9
$TDUCREATE
 40
2459645.509395301
  9
$TDUPDATE
 40
2459688.38209728
  9
$TDUUPDATE
 40
2459688.00709728
  9
$TDINDWG
 40
0.0011445718
  9
$TDUSRTIMER
 40
0.0011445718
  9
$USRTIMER
 70
     1
  9
$ANGBASE
 50
0.0
  9
$ANGDIR
 70
     0
  9
$PDMODE
 70
     0
  9
$PDSIZE
 40
0.0
  9
$PLINEWID
 40
0.0
  9
$SPLFRAME
 70
     0
  9
$SPLINETYPE
 70
     6
  9
$SPLINESEGS
 70
     8
  9
$HANDSEED
  5
85E
  9
$SURFTAB1
 70
     6
  9
$SURFTAB2
 70
     6
  9
$SURFTYPE
 70
     6
  9
$SURFU
 70
     6
  9
$SURFV
 70
     6
  9
$UCSBASE
  2

  9
$UCSNAME
  2

  9
$UCSORG
 10
0.0
 20
0.0
 30
0.0
  9
$UCSXDIR
 10
1.0
 20
0.0
 30
0.0
  9
$UCSYDIR
 10
0.0
 20
1.0
 30
0.0
  9
$UCSORTHOREF
  2

  9
$UCSORTHOVIEW
 70
     0
  9
$UCSORGTOP
 10
0.0
 20
0.0
 30
0.0
  9
$UCSORGBOTTOM
 10
0.0
 20
0.0
 30
0.0
  9
$UCSORGLEFT
 10
0.0
 20
0.0
 30
0.0
  9
$UCSORGRIGHT
 10
0.0
 20
0.0
 30
0.0
  9
$UCSORGFRONT
 10
0.0
 20
0.0
 30
0.0
  9
$UCSORGBACK
 10
0.0
 20
0.0
 30
0.0
  9
$PUCSBASE
  2

  9
$PUCSNAME
  2

  9
$PUCSORG
 10
0.0
 20
0.0
 30
0.0
  9
$PUCSXDIR
 10
1.0
 20
0.0
 30
0.0
  9
$PUCSYDIR
 10
0.0
 20
1.0
 30
0.0
  9
$PUCSORTHOREF
  2

  9
$PUCSORTHOVIEW
 70
     0
  9
$PUCSORGTOP
 10
0.0
 20
0.0
 30
0.0
  9
$PUCSORGBOTTOM
 10
0.0
 20
0.0
 30
0.0
  9
$PUCSORGLEFT
 10
0.0
 20
0.0
 30
0.0
  9
$PUCSORGRIGHT
 10
0.0
 20
0.0
 30
0.0
  9
$PUCSORGFRONT
 10
0.0
 20
0.0
 30
0.0
  9
$PUCSORGBACK
 10
0.0
 20
0.0
 30
0.0
  9
$USERI1
 70
     0
  9
$USERI2
 70
     0
  9
$USERI3
 70
     0
  9
$USERI4
 70
     0
  9
$USERI5
 70
     0
  9
$USERR1
 40
0.0
  9
$USERR2
 40
0.0
  9
$USERR3
 40
0.0
  9
$USERR4
 40
0.0
  9
$USERR5
 40
0.0
  9
$WORLDVIEW
 70
     1
  9
$SHADEDGE
 70
     3
  9
$SHADEDIF
 70
    70
  9
$TILEMODE
 70
     1
  9
$MAXACTVP
 70
    64
  9
$PINSBASE
 10
0.0
 20
0.0
 30
0.0
  9
$PLIMCHECK
 70
     0
  9
$PEXTMIN
 10
1.000000000000000E+20
 20
1.000000000000000E+20
 30
1.000000000000000E+20
  9
$PEXTMAX
 10
-1.000000000000000E+20
 20
-1.000000000000000E+20
 30
-1.000000000000000E+20
  9
$PLIMMIN
 10
0.0
 20
0.0
  9
$PLIMMAX
 10
12.0
 20
9.0
  9
$UNITMODE
 70
     0
  9
$VISRETAIN
 70
     1
  9
$PLINEGEN
 70
     0
  9
$PSLTSCALE
 70
     1
  9
$TREEDEPTH
 70
  3020
  9
$CMLSTYLE
  2
Standard
  9
$CMLJUST
 70
     0
  9
$CMLSCALE
 40
1.0
  9
$PROXYGRAPHICS
 70
     1
  9
$MEASUREMENT
 70
     0
  9
$CELWEIGHT
370
    -1
  9
$ENDCAPS
280
     0
  9
$JOINSTYLE
280
     0
  9
$LWDISPLAY
290
     0
  9
$INSUNITS
 70
     4
  9
$HYPERLINKBASE
  1

  9
$STYLESHEET
  1

  9
$XEDIT
290
     1
  9
$CEPSNTYPE
380
     0
  9
$PSTYLEMODE
290
     1
  9
$FINGERPRINTGUID
  2
{1ca51c7a-af2d-43f1-ac4f-97c6f91a30da}
  9
$VERSIONGUID
  2
{FAEB1C32-E019-11D5-929B-00C0DF256EC4}
  9
$EXTNAMES
290
     1
  9
$PSVPSCALE
 40
0.0
  9
$OLESTARTUP
290
     0
  9
$SORTENTS
280
   127
  9
$INDEXCTL
280
     0
  9
$HIDETEXT
280
     1
  9
$XCLIPFRAME
280
     2
  9
$HALOGAP
280
     0
  9
$OBSCOLOR
 70
   257
  9
$OBSLTYPE
280
     0
  9
$INTERSECTIONDISPLAY
280
     0
  9
$INTERSECTIONCOLOR
 70
   257
  9
$DIMASSOC
280
     2
  9
$PROJECTNAME
  1

  9
$CAMERADISPLAY
290
     0
  9
$LENSLENGTH
 40
50.0
  9
$CAMERAHEIGHT
 40
0.0
  9
$STEPSPERSEC
 40
2.0
  9
$STEPSIZE
 40
6.0
  9
$3DDWFPREC
 40
2.0
  9
$PSOLWIDTH
 40
0.25
  9
$PSOLHEIGHT
 40
4.0
  9
$LOFTANG1
 40
1.570796326794897
  9
$LOFTANG2
 40
1.570796326794897
  9
$LOFTMAG1
 40
0.0
  9
$LOFTMAG2
 40
0.0
  9
$LOFTPARAM
 70
     7
  9
$LOFTNORMALS
280
     1
  9
$LATITUDE
 40
37.795
  9
$LONGITUDE
 40
-122.394
  9
$NORTHDIRECTION
 40
0.0
  9
$TIMEZONE
 70
 -8000
  9
$LIGHTGLYPHDISPLAY
280
     1
  9
$TILEMODELIGHTSYNCH
280
     1
  9
$CMATERIAL
347
44
  9
$SOLIDHIST
280
     1
  9
$SHOWHIST
280
     1
  9
$DWFFRAME
280
     2
  9
$DGNFRAME
280
     0
  9
$REALWORLDSCALE
290
     1
  9
$INTERFERECOLOR
 62
   256
  9
$INTERFEREOBJVS
345
33
  9
$INTERFEREVPVS
346
30
  9
$CSHADOW
280
     0
  9
$SHADOWPLANELOCATION
 40
0.0
  0
ENDSEC
  0
SECTION
  2
CLASSES
  0
CLASS
  1
ACDBDICTIONARYWDFLT
  2
AcDbDictionaryWithDefault
  3
ObjectDBX Classes
 90
        0
 91
        4
280
     0
281
     0
  0
CLASS
  1
VISUALSTYLE
  2
AcDbVisualStyle
  3
ObjectDBX Classes
 90
     4095
 91
        4
280
     0
281
     0
  0
CLASS
  1
MATERIAL
  2
AcDbMaterial
  3
ObjectDBX Classes
 90
     1153
 91
        4
280
     0
281
     0
  0
CLASS
  1
SCALE
  2
AcDbScale
  3
ObjectDBX Classes
 90
     1153
 91
        4
280
     0
281
     0
  0
CLASS
  1
TABLESTYLE
  2
AcDbTableStyle
  3
ObjectDBX Classes
 90
     4095
 91
        4
280
     0
281
     0
  0
CLASS
  1
MLEADERSTYLE
  2
AcDbMLeaderStyle
  3
ACDB_MLEADERSTYLE_CLASS
 90
     4095
 91
        4
280
     0
281
     0
  0
CLASS
  1
SUN
  2
AcDbSun
  3
SCENEOE
 90
     1024
 91
        4
280
     0
281
     0
  0
CLASS
  1
DICTIONARYVAR
  2
AcDbDictionaryVar
  3
ObjectDBX Classes
 90
        0
 91
        4
280
     0
281
     0
  0
CLASS
  1
CELLSTYLEMAP
  2
AcDbCellStyleMap
  3
ObjectDBX Classes
 90
     1152
 91
        4
280
     0
281
     0
  0
CLASS
  1
ACDBPLACEHOLDER
  2
AcDbPlaceHolder
  3
ObjectDBX Classes
 90
        0
 91
        1
280
     0
281
     0
  0
CLASS
  1
LAYOUT
  2
AcDbLayout
  3
ObjectDBX Classes
 90
        0
 91
        1
280
     0
281
     0
  0
ENDSEC
  0
SECTION
  2
TABLES
  0
TABLE
  2
VPORT
  5
8
330
0
100
AcDbSymbolTable
 70
     1
  0
VPORT
  5
29
330
8
100
AcDbSymbolTableRecord
100
AcDbViewportTableRecord
  2
*Active
 70
     0
 10
0.0
 20
0.0
 11
1.0
 21
1.0
 12
1301.5
 22
277.0000000000001
 13
0.0
 23
0.0
 14
0.5
 24
0.5
 15
0.5
 25
0.5
 16
0.0
 26
0.0
 36
1.0
 17
0.0
 27
0.0
 37
0.0
 40
1248.392397987702
 41
2.094405594405595
 42
50.0
 43
0.0
 44
0.0
 50
0.0
 51
0.0
 71
     0
 72
  1000
 73
     1
 74
     3
 75
     0
 76
     0
 77
     0
 78
     0
281
     0
 65
     1
110
0.0
120
0.0
130
0.0
111
1.0
121
0.0
131
0.0
112
0.0
122
1.0
132
0.0
 79
     0
146
0.0
348
2F
 60
     3
 61
     5
292
     1
282
     1
141
0.0
142
0.0
 63
   250
361
6D
  0
ENDTAB
  0
TABLE
  2
LTYPE
  5
5
330
0
100
AcDbSymbolTable
 70
     5
  0
LTYPE
  5
14
330
5
100
AcDbSymbolTableRecord
100
AcDbLinetypeTableRecord
  2
ByBlock
 70
     0
  3

 72
    65
 73
     0
 40
0.0
  0
LTYPE
  5
15
330
5
100
AcDbSymbolTableRecord
100
AcDbLinetypeTableRecord
  2
ByLayer
 70
     0
  3

 72
    65
 73
     0
 40
0.0
  0
LTYPE
  5
16
330
5
100
AcDbSymbolTableRecord
100
AcDbLinetypeTableRecord
  2
Continuous
 70
     0
  3
Solid line
 72
    65
 73
     0
 40
0.0
  0
LTYPE
  5
6E
330
5
100
AcDbSymbolTableRecord
100
AcDbLinetypeTableRecord
  2
chain
 70
     0
  3
_____ __ _____ __ _____
 72
    65
 73
     4
 40
18.5
 49
12.0
 74
     4
 75
     0
340
0
 46
1.0
 50
0.0
 44
0.0
 45
0.0
 49
-1.5
 74
     4
 75
     0
340
0
 46
1.0
 50
0.0
 44
0.0
 45
0.0
 49
3.5
 74
     4
 75
     0
340
0
 46
1.0
 50
0.0
 44
0.0
 45
0.0
 49
-1.5
 74
     4
 75
     0
340
0
 46
1.0
 50
0.0
 44
0.0
 45
0.0
  0
LTYPE
  5
6F
330
5
100
AcDbSymbolTableRecord
100
AcDbLinetypeTableRecord
  2
USER_1
 70
     0
  3
UserDefineLineType1
 72
    65
 73
     2
 40
0.6000000000000001
 49
0.3
 74
     4
 75
     0
340
0
 46
1.0
 50
0.0
 44
0.0
 45
0.0
 49
-0.3
 74
     4
 75
     0
340
0
 46
1.0
 50
0.0
 44
0.0
 45
0.0
  0
LTYPE
  5
70
330
5
100
AcDbSymbolTableRecord
100
AcDbLinetypeTableRecord
  2
USER_6
 70
     0
  3
UserDefineLineType6
 72
    65
 73
     2
 40
2.0
 49
1.0
 74
     4
 75
     0
340
0
 46
1.0
 50
0.0
 44
0.0
 45
0.0
 49
-1.0
 74
     4
 75
     0
340
0
 46
1.0
 50
0.0
 44
0.0
 45
0.0
  0
LTYPE
  5
2FD
330
5
100
AcDbSymbolTableRecord
100
AcDbLinetypeTableRecord
  2
dashed
 70
     0
  3
_____ _____ _____ _____ _____
 72
    65
 73
     2
 40
7.5
 49
6.0
 74
     4
 75
     0
340
0
 46
1.0
 50
0.0
 44
0.0
 45
0.0
 49
-1.5
 74
     4
 75
     0
340
0
 46
1.0
 50
0.0
 44
0.0
 45
0.0
  0
ENDTAB
  0
TABLE
  2
LAYER
  5
2
330
0
100
AcDbSymbolTable
 70
    10
  0
LAYER
  5
10
330
2
100
AcDbSymbolTableRecord
100
AcDbLayerTableRecord
  2
0
 70
     0
 62
     7
  6
Continuous
370
    -3
390
F
347
46
348
0
  0
LAYER
  5
71
330
2
100
AcDbSymbolTableRecord
100
AcDbLayerTableRecord
  2
測点名
 70
     0
 62
     5
  6
Continuous
370
    -3
390
F
347
46
348
0
  0
LAYER
  5
72
330
2
100
AcDbSymbolTableRecord
100
AcDbLayerTableRecord
  2
ＰＨ
 70
     0
 62
     5
  6
Continuous
370
    -3
390
F
347
46
348
0
  0
LAYER
  5
73
330
2
100
AcDbSymbolTableRecord
100
AcDbLayerTableRecord
  2
ＧＨ
 70
     0
 62
     5
  6
Continuous
370
    -3
390
F
347
46
348
0
  0
LAYER
  5
74
330
2
100
AcDbSymbolTableRecord
100
AcDbLayerTableRecord
  2
現況線
 70
     0
 62
     7
  6
Continuous
370
    -3
390
F
347
46
348
0
  0
LAYER
  5
75
330
2
100
AcDbSymbolTableRecord
100
AcDbLayerTableRecord
  2
中心線
 70
     0
 62
     8
  6
Continuous
370
    -3
390
F
347
46
348
0
  0
LAYER
  5
76
330
2
100
AcDbSymbolTableRecord
100
AcDbLayerTableRecord
  2
ＤＬ線
 70
     0
 62
     2
  6
chain
370
    -3
390
F
347
46
348
0
  0
LAYER
  5
77
330
2
100
AcDbSymbolTableRecord
100
AcDbLayerTableRecord
  2
ＤＬ値
 70
     0
 62
     7
  6
Continuous
370
    -3
390
F
347
46
348
0
  0
LAYER
  5
78
330
2
100
AcDbSymbolTableRecord
100
AcDbLayerTableRecord
  2
作業ﾚｲﾔ1
 70
     0
 62
     7
  6
Continuous
370
    -3
390
F
347
46
348
0
  0
LAYER
  5
79
330
2
100
AcDbSymbolTableRecord
100
AcDbLayerTableRecord
  2
作業ﾚｲﾔ7
 70
     0
 62
     4
  6
Continuous
370
    -3
390
F
347
46
348
0
  0
ENDTAB
  0
TABLE
  2
STYLE
  5
3
330
0
100
AcDbSymbolTable
 70
     3
  0
STYLE
  5
11
330
3
100
AcDbSymbolTableRecord
100
AcDbTextStyleTableRecord
  2
Standard
 70
     0
 40
0.0
 41
1.0
 50
0.0
 71
     0
 42
0.2
  3
txt
  4

  0
STYLE
  5
7A
330
3
100
AcDbSymbolTableRecord
100
AcDbTextStyleTableRecord
  2
STANDARD-FC
 70
     0
 40
0.0
 41
1.0
 50
0.0
 71
     0
 42
0.2
  3
txt
  4
bigfont
  0
STYLE
  5
7B
330
3
100
AcDbSymbolTableRecord
100
AcDbTextStyleTableRecord
  2
ＭＳ ゴシック
 70
     0
 40
0.0
 41
1.0
 50
0.0
 71
     0
 42
0.2
  3
msgothic.ttc
  4

1001
ACAD
1000
MS Gothic
1071
    32817
  0
ENDTAB
  0
TABLE
  2
VIEW
  5
6
330
0
100
AcDbSymbolTable
 70
     0
  0
ENDTAB
  0
TABLE
  2
UCS
  5
7
330
0
100
AcDbSymbolTable
 70
     0
  0
ENDTAB
  0
TABLE
  2
APPID
  5
9
330
0
100
AcDbSymbolTable
 70
     2
  0
APPID
  5
12
330
9
100
AcDbSymbolTableRecord
100
AcDbRegAppTableRecord
  2
ACAD
 70
     0
  0
APPID
  5
2E7
330
9
100
AcDbSymbolTableRecord
100
AcDbRegAppTableRecord
  2
ACAD_MLEADERVER
 70
     0
  0
ENDTAB
  0
TABLE
  2
DIMSTYLE
  5
A
330
0
100
AcDbSymbolTable
 70
     1
100
AcDbDimStyleTable
  0
DIMSTYLE
105
27
330
A
100
AcDbSymbolTableRecord
100
AcDbDimStyleTableRecord
  2
Standard
 70
     0
178
     0
340
11
  0
ENDTAB
  0
TABLE
  2
BLOCK_RECORD
  5
1
330
0
100
AcDbSymbolTable
 70
     1
  0
BLOCK_RECORD
  5
1F
330
1
100
AcDbSymbolTableRecord
100
AcDbBlockTableRecord
  2
*Model_Space
340
22
 70
     0
280
     1
281
     0
  0
BLOCK_RECORD
  5
1B
330
1
100
AcDbSymbolTableRecord
100
AcDbBlockTableRecord
  2
*Paper_Space
340
1E
 70
     0
280
     1
281
     0
  0
BLOCK_RECORD
  5
23
330
1
100
AcDbSymbolTableRecord
100
AcDbBlockTableRecord
  2
*Paper_Space0
340
26
 70
     0
280
     1
281
     0
  0
ENDTAB
  0
ENDSEC
  0
SECTION
  2
BLOCKS
  0
BLOCK
  5
20
330
1F
100
AcDbEntity
  8
0
100
AcDbBlockBegin
  2
*Model_Space
 70
     0
 10
0.0
 20
0.0
 30
0.0
  3
*Model_Space
  1

  0
ENDBLK
  5
21
330
1F
100
AcDbEntity
  8
0
100
AcDbBlockEnd
  0
BLOCK
  5
1C
330
1B
100
AcDbEntity
 67
     1
  8
0
100
AcDbBlockBegin
  2
*Paper_Space
 70
     0
 10
0.0
 20
0.0
 30
0.0
  3
*Paper_Space
  1

  0
ENDBLK
  5
1D
330
1B
100
AcDbEntity
 67
     1
  8
0
100
AcDbBlockEnd
  0
BLOCK
  5
24
330
23
100
AcDbEntity
  8
0
100
AcDbBlockBegin
  2
*Paper_Space0
 70
     0
 10
0.0
 20
0.0
 30
0.0
  3
*Paper_Space0
  1

  0
ENDBLK
  5
25
330
23
100
AcDbEntity
  8
0
100
AcDbBlockEnd
  0
ENDSEC
  0
SECTION
  2
ENTITIES
  0
LINE
  5
7C
330
1F
100
AcDbEntity
  8
ＤＬ線
  6
Continuous
 62
     7
370
    18
100
AcDbLine
 10
801.0
 20
100.0
 30
0.0
 11
750.0
 21
100.0
 31
0.0
  0
TEXT
  5
7D
330
1F
100
AcDbEntity
  8
ＤＬ値
  6
Continuous
 62
     7
370
    18
100
AcDbText
 10
3.0
 20
101.4936083596004
 30
0.0
 40
2.681992337164751
  1
DL=0.000
  7
ＭＳ ゴシック
 11
3.0
 21
101.0035
 31
0.0
100
AcDbText
 73
     1
  0
LINE
  5
7E
330
1F
100
AcDbEntity
  8
ＤＬ線
  6
Continuous
 62
     7
370
    18
100
AcDbLine
 10
0.0
 20
100.0
 30
0.0
 11
50.0
 21
100.0
 31
0.0
  0
LINE
  5
7F
330
1F
100
AcDbEntity
  8
測点名
  6
Continuous
 62
     7
370
    18
100
AcDbLine
 10
390.75
 20
200.0
 30
0.0
 11
409.25
 21
200.0
 31
0.0
  0
LINE
  5
80
330
1F
100
AcDbEntity
  8
測点名
  6
Continuous
 62
     7
370
    18
100
AcDbLine
 10
390.75
 20
201.0
 30
0.0
 11
409.25
 21
201.0
 31
0.0
  0
TEXT
  5
81
330
1F
100
AcDbEntity
  8
測点名
  6
Continuous
 62
     7
370
    13
100
AcDbText
 10
393.7716107141711
 20
202.7051547994291
 30
0.0
 40
3.831417624521073
  1
BNO.0
  7
ＭＳ ゴシック
 72
     1
 11
400.0
 21
202.005
 31
0.0
100
AcDbText
 73
     1
  0
LINE
  5
82
330
1F
100
AcDbEntity
  8
現況線
  6
Continuous
 62
     7
370
    18
100
AcDbLine
 10
699.62
 20
125.4
 30
0.0
 11
700.0
 21
125.4
 31
0.0
  0
LINE
  5
83
330
1F
100
AcDbEntity
  8
現況線
  6
Continuous
 62
     7
370
    18
100
AcDbLine
 10
661.26
 20
125.75
 30
0.0
 11
699.62
 21
125.4
 31
0.0
  0
LINE
  5
84
330
1F
100
AcDbEntity
  8
現況線
  6
Continuous
 62
     7
370
    18
100
AcDbLine
 10
661.26
 20
126.05
 30
0.0
 11
661.26
 21
125.75
 31
0.0
  0
LINE
  5
85
330
1F
100
AcDbEntity
  8
現況線
  6
Continuous
 62
     7
370
    18
100
AcDbLine
 10
521.52
 20
125.83
 30
0.0
 11
661.26
 21
126.05
 31
0.0
  0
LINE
  5
86
330
1F
100
AcDbEntity
  8
現況線
  6
Continuous
 62
     7
370
    18
100
AcDbLine
 10
400.0
 20
126.06
 30
0.0
 11
521.52
 21
125.83
 31
0.0
  0
LINE
  5
87
330
1F
100
AcDbEntity
  8
現況線
  6
Continuous
 62
     7
370
    18
100
AcDbLine
 10
93.12
 20
125.55
 30
0.0
 11
91.89999999999998
 21
125.65
 31
0.0
  0
LINE
  5
88
330
1F
100
AcDbEntity
  8
現況線
  6
Continuous
 62
     7
370
    18
100
AcDbLine
 10
101.18
 20
125.48
 30
0.0
 11
93.12
 21
125.55
 31
0.0
  0
LINE
  5
89
330
1F
100
AcDbEntity
  8
現況線
  6
Continuous
 62
     7
370
    18
100
AcDbLine
 10
107.28
 20
125.7
 30
0.0
 11
101.1799999999999
 21
125.48
 31
0.0
  0
LINE
  5
8A
330
1F
100
AcDbEntity
  8
現況線
  6
Continuous
 62
     7
370
    18
100
AcDbLine
 10
130.56
 20
126.5
 30
0.0
 11
107.28
 21
125.7
 31
0.0
  0
LINE
  5
8B
330
1F
100
AcDbEntity
  8
現況線
  6
Continuous
 62
     7
370
    18
100
AcDbLine
 10
133.18
 20
126.88
 30
0.0
 11
130.56
 21
126.5
 31
0.0
  0
LINE
  5
8C
330
1F
100
AcDbEntity
  8
現況線
  6
Continuous
 62
     7
370
    18
100
AcDbLine
 10
267.21
 20
126.24
 30
0.0
 11
133.1800000000001
 21
126.88
 31
0.0
  0
LINE
  5
8D
330
1F
100
AcDbEntity
  8
現況線
  6
Continuous
 62
     7
370
    18
100
AcDbLine
 10
400.0
 20
126.06
 30
0.0
 11
267.21
 21
126.24
 31
0.0
  0
LINE
  5
8E
330
1F
100
AcDbEntity
  8
中心線
  6
chain
 62
     7
370
    18
100
AcDbLine
 10
400.0
 20
106.06
 30
0.0
 11
400.0
 21
146.06
 31
0.0
  0
LINE
  5
8F
330
1F
100
AcDbEntity
  8
ＤＬ線
  6
Continuous
 62
     7
370
    18
100
AcDbLine
 10
801.0
 20
250.0
 30
0.0
 11
750.0
 21
250.0
 31
0.0
  0
TEXT
  5
90
330
1F
100
AcDbEntity
  8
ＤＬ値
  6
Continuous
 62
     7
370
    18
100
AcDbText
 10
3.0
 20
251.4936083596004
 30
0.0
 40
2.681992337164751
  1
DL=0.000
  7
ＭＳ ゴシック
 11
3.0
 21
251.0035
 31
0.0
100
AcDbText
 73
     1
  0
LINE
  5
91
330
1F
100
AcDbEntity
  8
ＤＬ線
  6
Continuous
 62
     7
370
    18
100
AcDbLine
 10
0.0
 20
250.0
 30
0.0
 11
50.0
 21
250.0
 31
0.0
  0
LINE
  5
92
330
1F
100
AcDbEntity
  8
測点名
  6
Continuous
 62
     7
370
    18
100
AcDbLine
 10
390.75
 20
350.0
 30
0.0
 11
409.25
 21
350.0
 31
0.0
  0
LINE
  5
93
330
1F
100
AcDbEntity
  8
測点名
  6
Continuous
 62
     7
370
    18
100
AcDbLine
 10
390.75
 20
351.0
 30
0.0
 11
409.25
 21
351.0
 31
0.0
  0
TEXT
  5
94
330
1F
100
AcDbEntity
  8
測点名
  6
Continuous
 62
     7
370
    13
100
AcDbText
 10
393.7716107141711
 20
352.7051547994291
 30
0.0
 40
3.831417624521073
  1
BNO.1
  7
ＭＳ ゴシック
 72
     1
 11
400.0
 21
352.005
 31
0.0
100
AcDbText
 73
     1
  0
LINE
  5
95
330
1F
100
AcDbEntity
  8
現況線
  6
Continuous
 62
     7
370
    18
100
AcDbLine
 10
700.0
 20
275.41
 30
0.0
 11
735.16
 21
274.95
 31
0.0
  0
LINE
  5
96
330
1F
100
AcDbEntity
  8
現況線
  6
Continuous
 62
     7
370
    18
100
AcDbLine
 10
682.36
 20
275.53
 30
0.0
 11
700.0
 21
275.41
 31
0.0
  0
LINE
  5
97
330
1F
100
AcDbEntity
  8
現況線
  6
Continuous
 62
     7
370
    18
100
AcDbLine
 10
661.27
 20
275.79
 30
0.0
 11
682.36
 21
275.53
 31
0.0
  0
LINE
  5
98
330
1F
100
AcDbEntity
  8
現況線
  6
Continuous
 62
     7
370
    18
100
AcDbLine
 10
661.27
 20
276.39
 30
0.0
 11
661.27
 21
275.79
 31
0.0
  0
LINE
  5
99
330
1F
100
AcDbEntity
  8
現況線
  6
Continuous
 62
     7
370
    18
100
AcDbLine
 10
660.27
 20
276.39
 30
0.0
 11
661.27
 21
276.39
 31
0.0
  0
LINE
  5
9A
330
1F
100
AcDbEntity
  8
現況線
  6
Continuous
 62
     7
370
    18
100
AcDbLine
 10
659.27
 20
276.39
 30
0.0
 11
660.27
 21
276.39
 31
0.0
  0
LINE
  5
9B
330
1F
100
AcDbEntity
  8
現況線
  6
Continuous
 62
     7
370
    18
100
AcDbLine
 10
659.27
 20
275.77
 30
0.0
 11
659.27
 21
276.39
 31
0.0
  0
LINE
  5
9C
330
1F
100
AcDbEntity
  8
現況線
  6
Continuous
 62
     7
370
    18
100
AcDbLine
 10
643.73
 20
276.5
 30
0.0
 11
659.27
 21
275.77
 31
0.0
  0
LINE
  5
9D
330
1F
100
AcDbEntity
  8
現況線
  6
Continuous
 62
     7
370
    18
100
AcDbLine
 10
623.89
 20
287.3
 30
0.0
 11
643.73
 21
276.5
 31
0.0
  0
LINE
  5
9E
330
1F
100
AcDbEntity
  8
現況線
  6
Continuous
 62
     7
370
    18
100
AcDbLine
 10
618.02
 20
287.92
 30
0.0
 11
623.89
 21
287.3
 31
0.0
  0
LINE
  5
9F
330
1F
100
AcDbEntity
  8
現況線
  6
Continuous
 62
     7
370
    18
100
AcDbLine
 10
616.52
 20
287.92
 30
0.0
 11
618.02
 21
287.92
 31
0.0
  0
LINE
  5
A0
330
1F
100
AcDbEntity
  8
現況線
  6
Continuous
 62
     7
370
    18
100
AcDbLine
 10
616.28
 20
286.75
 30
0.0
 11
616.52
 21
287.92
 31
0.0
  0
LINE
  5
A1
330
1F
100
AcDbEntity
  8
現況線
  6
Continuous
 62
     7
370
    18
100
AcDbLine
 10
615.71
 20
286.65
 30
0.0
 11
616.28
 21
286.75
 31
0.0
  0
LINE
  5
A2
330
1F
100
AcDbEntity
  8
現況線
  6
Continuous
 62
     7
370
    18
100
AcDbLine
 10
615.71
 20
287.34
 30
0.0
 11
615.71
 21
286.65
 31
0.0
  0
LINE
  5
A3
330
1F
100
AcDbEntity
  8
現況線
  6
Continuous
 62
     7
370
    18
100
AcDbLine
 10
615.31
 20
287.34
 30
0.0
 11
615.71
 21
287.34
 31
0.0
  0
LINE
  5
A4
330
1F
100
AcDbEntity
  8
現況線
  6
Continuous
 62
     7
370
    18
100
AcDbLine
 10
615.31
 20
286.99
 30
0.0
 11
615.31
 21
287.34
 31
0.0
  0
LINE
  5
A5
330
1F
100
AcDbEntity
  8
現況線
  6
Continuous
 62
     7
370
    18
100
AcDbLine
 10
615.16
 20
286.99
 30
0.0
 11
615.31
 21
286.99
 31
0.0
  0
LINE
  5
A6
330
1F
100
AcDbEntity
  8
現況線
  6
Continuous
 62
     7
370
    18
100
AcDbLine
 10
615.16
 20
284.69
 30
0.0
 11
615.16
 21
286.99
 31
0.0
  0
LINE
  5
A7
330
1F
100
AcDbEntity
  8
現況線
  6
Continuous
 62
     7
370
    18
100
AcDbLine
 10
612.22
 20
284.69
 30
0.0
 11
615.16
 21
284.69
 31
0.0
  0
LINE
  5
A8
330
1F
100
AcDbEntity
  8
現況線
  6
Continuous
 62
     7
370
    18
100
AcDbLine
 10
612.22
 20
286.99
 30
0.0
 11
612.22
 21
284.69
 31
0.0
  0
LINE
  5
A9
330
1F
100
AcDbEntity
  8
現況線
  6
Continuous
 62
     7
370
    18
100
AcDbLine
 10
612.0699999999999
 20
286.99
 30
0.0
 11
612.22
 21
286.99
 31
0.0
  0
LINE
  5
AA
330
1F
100
AcDbEntity
  8
現況線
  6
Continuous
 62
     7
370
    18
100
AcDbLine
 10
612.0699999999999
 20
287.34
 30
0.0
 11
612.0699999999999
 21
286.99
 31
0.0
  0
LINE
  5
AB
330
1F
100
AcDbEntity
  8
現況線
  6
Continuous
 62
     7
370
    18
100
AcDbLine
 10
611.67
 20
287.34
 30
0.0
 11
612.0699999999999
 21
287.34
 31
0.0
  0
LINE
  5
AC
330
1F
100
AcDbEntity
  8
現況線
  6
Continuous
 62
     7
370
    18
100
AcDbLine
 10
611.67
 20
286.6
 30
0.0
 11
611.67
 21
287.34
 31
0.0
  0
LINE
  5
AD
330
1F
100
AcDbEntity
  8
現況線
  6
Continuous
 62
     7
370
    18
100
AcDbLine
 10
609.77
 20
286.7
 30
0.0
 11
611.6700000000001
 21
286.6
 31
0.0
  0
LINE
  5
AE
330
1F
100
AcDbEntity
  8
現況線
  6
Continuous
 62
     7
370
    18
100
AcDbLine
 10
592.46
 20
286.71
 30
0.0
 11
609.77
 21
286.7
 31
0.0
  0
LINE
  5
AF
330
1F
100
AcDbEntity
  8
現況線
  6
Continuous
 62
     7
370
    18
100
AcDbLine
 10
558.05
 20
286.53
 30
0.0
 11
592.46
 21
286.71
 31
0.0
  0
LINE
  5
B0
330
1F
100
AcDbEntity
  8
現況線
  6
Continuous
 62
     7
370
    18
100
AcDbLine
 10
524.23
 20
286.44
 30
0.0
 11
558.05
 21
286.53
 31
0.0
  0
LINE
  5
B1
330
1F
100
AcDbEntity
  8
現況線
  6
Continuous
 62
     7
370
    18
100
AcDbLine
 10
512.51
 20
285.93
 30
0.0
 11
524.23
 21
286.44
 31
0.0
  0
LINE
  5
B2
330
1F
100
AcDbEntity
  8
現況線
  6
Continuous
 62
     7
370
    18
100
AcDbLine
 10
503.56
 20
286.74
 30
0.0
 11
509.77
 21
286.12
 31
0.0
  0
LINE
  5
B3
330
1F
100
AcDbEntity
  8
現況線
  6
Continuous
 62
     7
370
    18
100
AcDbLine
 10
493.3
 20
287.53
 30
0.0
 11
503.56
 21
286.74
 31
0.0
  0
LINE
  5
B4
330
1F
100
AcDbEntity
  8
現況線
  6
Continuous
 62
     7
370
    18
100
AcDbLine
 10
493.3
 20
288.65
 30
0.0
 11
493.3
 21
287.53
 31
0.0
  0
LINE
  5
B5
330
1F
100
AcDbEntity
  8
現況線
  6
Continuous
 62
     7
370
    18
100
AcDbLine
 10
491.78
 20
288.68
 30
0.0
 11
493.3
 21
288.65
 31
0.0
  0
LINE
  5
B6
330
1F
100
AcDbEntity
  8
現況線
  6
Continuous
 62
     7
370
    18
100
AcDbLine
 10
459.14
 20
288.74
 30
0.0
 11
491.78
 21
288.68
 31
0.0
  0
LINE
  5
B7
330
1F
100
AcDbEntity
  8
現況線
  6
Continuous
 62
     7
370
    18
100
AcDbLine
 10
422.06
 20
288.67
 30
0.0
 11
459.14
 21
288.74
 31
0.0
  0
LINE
  5
B8
330
1F
100
AcDbEntity
  8
現況線
  6
Continuous
 62
     7
370
    18
100
AcDbLine
 10
400.0
 20
289.15
 30
0.0
 11
422.06
 21
288.67
 31
0.0
  0
LINE
  5
B9
330
1F
100
AcDbEntity
  8
現況線
  6
Continuous
 62
     7
370
    18
100
AcDbLine
 10
74.15999999999997
 20
275.98
 30
0.0
 11
69.37
 21
276.14
 31
0.0
  0
LINE
  5
BA
330
1F
100
AcDbEntity
  8
現況線
  6
Continuous
 62
     7
370
    18
100
AcDbLine
 10
74.39999999999998
 20
277.46
 30
0.0
 11
74.15999999999997
 21
275.98
 31
0.0
  0
LINE
  5
BB
330
1F
100
AcDbEntity
  8
現況線
  6
Continuous
 62
     7
370
    18
100
AcDbLine
 10
75.90000000000003
 20
277.46
 30
0.0
 11
74.39999999999998
 21
277.46
 31
0.0
  0
LINE
  5
BC
330
1F
100
AcDbEntity
  8
現況線
  6
Continuous
 62
     7
370
    18
100
AcDbLine
 10
78.38
 20
277.7
 30
0.0
 11
75.90000000000003
 21
277.46
 31
0.0
  0
LINE
  5
BD
330
1F
100
AcDbEntity
  8
現況線
  6
Continuous
 62
     7
370
    18
100
AcDbLine
 10
96.00999999999999
 20
277.52
 30
0.0
 11
78.38
 21
277.7
 31
0.0
  0
LINE
  5
BE
330
1F
100
AcDbEntity
  8
現況線
  6
Continuous
 62
     7
370
    18
100
AcDbLine
 10
97.38
 20
277.52
 30
0.0
 11
96.00999999999999
 21
277.52
 31
0.0
  0
LINE
  5
BF
330
1F
100
AcDbEntity
  8
現況線
  6
Continuous
 62
     7
370
    18
100
AcDbLine
 10
97.38
 20
279.13
 30
0.0
 11
97.38
 21
277.52
 31
0.0
  0
LINE
  5
C0
330
1F
100
AcDbEntity
  8
現況線
  6
Continuous
 62
     7
370
    18
100
AcDbLine
 10
98.36000000000001
 20
279.13
 30
0.0
 11
97.38
 21
279.13
 31
0.0
  0
LINE
  5
C1
330
1F
100
AcDbEntity
  8
現況線
  6
Continuous
 62
     7
370
    18
100
AcDbLine
 10
99.32999999999998
 20
279.13
 30
0.0
 11
98.35999999999996
 21
279.13
 31
0.0
  0
LINE
  5
C2
330
1F
100
AcDbEntity
  8
現況線
  6
Continuous
 62
     7
370
    18
100
AcDbLine
 10
99.32999999999998
 20
276.76
 30
0.0
 11
99.32999999999998
 21
279.13
 31
0.0
  0
LINE
  5
C3
330
1F
100
AcDbEntity
  8
現況線
  6
Continuous
 62
     7
370
    18
100
AcDbLine
 10
121.52
 20
277.18
 30
0.0
 11
99.32999999999998
 21
276.76
 31
0.0
  0
LINE
  5
C4
330
1F
100
AcDbEntity
  8
現況線
  6
Continuous
 62
     7
370
    18
100
AcDbLine
 10
137.39
 20
287.06
 30
0.0
 11
121.52
 21
277.18
 31
0.0
  0
LINE
  5
C5
330
1F
100
AcDbEntity
  8
現況線
  6
Continuous
 62
     7
370
    18
100
AcDbLine
 10
152.45
 20
288.18
 30
0.0
 11
137.39
 21
287.06
 31
0.0
  0
LINE
  5
C6
330
1F
100
AcDbEntity
  8
現況線
  6
Continuous
 62
     7
370
    18
100
AcDbLine
 10
183.45
 20
288.54
 30
0.0
 11
152.45
 21
288.18
 31
0.0
  0
LINE
  5
C7
330
1F
100
AcDbEntity
  8
現況線
  6
Continuous
 62
     7
370
    18
100
AcDbLine
 10
185.22
 20
288.53
 30
0.0
 11
183.45
 21
288.54
 31
0.0
  0
LINE
  5
C8
330
1F
100
AcDbEntity
  8
現況線
  6
Continuous
 62
     7
370
    18
100
AcDbLine
 10
185.46
 20
287.51
 30
0.0
 11
185.22
 21
288.53
 31
0.0
  0
LINE
  5
C9
330
1F
100
AcDbEntity
  8
現況線
  6
Continuous
 62
     7
370
    18
100
AcDbLine
 10
200.26
 20
286.79
 30
0.0
 11
185.46
 21
287.51
 31
0.0
  0
LINE
  5
CA
330
1F
100
AcDbEntity
  8
現況線
  6
Continuous
 62
     7
370
    18
100
AcDbLine
 10
227.43
 20
285.07
 30
0.0
 11
200.26
 21
286.79
 31
0.0
  0
LINE
  5
CB
330
1F
100
AcDbEntity
  8
現況線
  6
Continuous
 62
     7
370
    18
100
AcDbLine
 10
227.43
 20
284.36
 30
0.0
 11
227.43
 21
285.07
 31
0.0
  0
LINE
  5
CC
330
1F
100
AcDbEntity
  8
現況線
  6
Continuous
 62
     7
370
    18
100
AcDbLine
 10
229.85
 20
284.34
 30
0.0
 11
227.43
 21
284.36
 31
0.0
  0
LINE
  5
CD
330
1F
100
AcDbEntity
  8
現況線
  6
Continuous
 62
     7
370
    18
100
AcDbLine
 10
229.85
 20
285.76
 30
0.0
 11
229.85
 21
284.34
 31
0.0
  0
LINE
  5
CE
330
1F
100
AcDbEntity
  8
現況線
  6
Continuous
 62
     7
370
    18
100
AcDbLine
 10
235.77
 20
285.72
 30
0.0
 11
229.85
 21
285.76
 31
0.0
  0
LINE
  5
CF
330
1F
100
AcDbEntity
  8
現況線
  6
Continuous
 62
     7
370
    18
100
AcDbLine
 10
235.77
 20
284.47
 30
0.0
 11
235.77
 21
285.72
 31
0.0
  0
LINE
  5
D0
330
1F
100
AcDbEntity
  8
現況線
  6
Continuous
 62
     7
370
    18
100
AcDbLine
 10
239.98
 20
284.41
 30
0.0
 11
235.77
 21
284.47
 31
0.0
  0
LINE
  5
D1
330
1F
100
AcDbEntity
  8
現況線
  6
Continuous
 62
     7
370
    18
100
AcDbLine
 10
239.98
 20
281.6
 30
0.0
 11
239.98
 21
284.41
 31
0.0
  0
LINE
  5
D2
330
1F
100
AcDbEntity
  8
現況線
  6
Continuous
 62
     7
370
    18
100
AcDbLine
 10
242.88
 20
281.44
 30
0.0
 11
239.98
 21
281.6
 31
0.0
  0
LINE
  5
D3
330
1F
100
AcDbEntity
  8
現況線
  6
Continuous
 62
     7
370
    18
100
AcDbLine
 10
242.88
 20
279.57
 30
0.0
 11
242.88
 21
281.44
 31
0.0
  0
LINE
  5
D4
330
1F
100
AcDbEntity
  8
作業ﾚｲﾔ1
  6
USER_6
 62
     7
370
    18
100
AcDbLine
 10
281.03
 20
279.42
 30
0.0
 11
242.88
 21
279.57
 31
0.0
  0
LINE
  5
D5
330
1F
100
AcDbEntity
  8
現況線
  6
Continuous
 62
     7
370
    18
100
AcDbLine
 10
281.03
 20
281.5
 30
0.0
 11
281.03
 21
279.42
 31
0.0
  0
LINE
  5
D6
330
1F
100
AcDbEntity
  8
現況線
  6
Continuous
 62
     7
370
    18
100
AcDbLine
 10
283.83
 20
281.67
 30
0.0
 11
281.03
 21
281.5
 31
0.0
  0
LINE
  5
D7
330
1F
100
AcDbEntity
  8
現況線
  6
Continuous
 62
     7
370
    18
100
AcDbLine
 10
283.83
 20
284.51
 30
0.0
 11
283.83
 21
281.67
 31
0.0
  0
LINE
  5
D8
330
1F
100
AcDbEntity
  8
現況線
  6
Continuous
 62
     7
370
    18
100
AcDbLine
 10
288.18
 20
284.34
 30
0.0
 11
283.83
 21
284.51
 31
0.0
  0
LINE
  5
D9
330
1F
100
AcDbEntity
  8
現況線
  6
Continuous
 62
     7
370
    18
100
AcDbLine
 10
288.18
 20
285.62
 30
0.0
 11
288.18
 21
284.34
 31
0.0
  0
LINE
  5
DA
330
1F
100
AcDbEntity
  8
現況線
  6
Continuous
 62
     7
370
    18
100
AcDbLine
 10
294.23
 20
285.63
 30
0.0
 11
288.18
 21
285.62
 31
0.0
  0
LINE
  5
DB
330
1F
100
AcDbEntity
  8
現況線
  6
Continuous
 62
     7
370
    18
100
AcDbLine
 10
294.23
 20
284.09
 30
0.0
 11
294.23
 21
285.63
 31
0.0
  0
LINE
  5
DC
330
1F
100
AcDbEntity
  8
現況線
  6
Continuous
 62
     7
370
    18
100
AcDbLine
 10
296.49
 20
284.03
 30
0.0
 11
294.23
 21
284.09
 31
0.0
  0
LINE
  5
DD
330
1F
100
AcDbEntity
  8
現況線
  6
Continuous
 62
     7
370
    18
100
AcDbLine
 10
296.49
 20
284.88
 30
0.0
 11
296.49
 21
284.03
 31
0.0
  0
LINE
  5
DE
330
1F
100
AcDbEntity
  8
現況線
  6
Continuous
 62
     7
370
    18
100
AcDbLine
 10
338.47
 20
287.35
 30
0.0
 11
296.49
 21
284.88
 31
0.0
  0
LINE
  5
DF
330
1F
100
AcDbEntity
  8
現況線
  6
Continuous
 62
     7
370
    18
100
AcDbLine
 10
338.68
 20
288.63
 30
0.0
 11
338.47
 21
287.35
 31
0.0
  0
LINE
  5
E0
330
1F
100
AcDbEntity
  8
現況線
  6
Continuous
 62
     7
370
    18
100
AcDbLine
 10
340.81
 20
288.63
 30
0.0
 11
338.68
 21
288.63
 31
0.0
  0
LINE
  5
E1
330
1F
100
AcDbEntity
  8
現況線
  6
Continuous
 62
     7
370
    18
100
AcDbLine
 10
400.0
 20
289.15
 30
0.0
 11
340.81
 21
288.63
 31
0.0
  0
LINE
  5
E2
330
1F
100
AcDbEntity
  8
中心線
  6
chain
 62
     7
370
    18
100
AcDbLine
 10
400.0
 20
269.15
 30
0.0
 11
400.0
 21
309.15
 31
0.0
  0
LINE
  5
E3
330
1F
100
AcDbEntity
  8
ＤＬ線
  6
Continuous
 62
     7
370
    18
100
AcDbLine
 10
801.0
 20
400.0
 30
0.0
 11
750.0
 21
400.0
 31
0.0
  0
TEXT
  5
E4
330
1F
100
AcDbEntity
  8
ＤＬ値
  6
Continuous
 62
     7
370
    18
100
AcDbText
 10
3.0
 20
401.4936083596003
 30
0.0
 40
2.681992337164751
  1
DL=0.000
  7
ＭＳ ゴシック
 11
3.0
 21
401.0035
 31
0.0
100
AcDbText
 73
     1
  0
LINE
  5
E5
330
1F
100
AcDbEntity
  8
ＤＬ線
  6
Continuous
 62
     7
370
    18
100
AcDbLine
 10
0.0
 20
400.0
 30
0.0
 11
50.0
 21
400.0
 31
0.0
  0
LINE
  5
E6
330
1F
100
AcDbEntity
  8
測点名
  6
Continuous
 62
     7
370
    18
100
AcDbLine
 10
390.7499999999999
 20
500.0
 30
0.0
 11
409.2499999999999
 21
500.0
 31
0.0
  0
LINE
  5
E7
330
1F
100
AcDbEntity
  8
測点名
  6
Continuous
 62
     7
370
    18
100
AcDbLine
 10
390.7499999999999
 20
501.0
 30
0.0
 11
409.2499999999999
 21
501.0
 31
0.0
  0
TEXT
  5
E8
330
1F
100
AcDbEntity
  8
測点名
  6
Continuous
 62
     7
370
    13
100
AcDbText
 10
393.771610714171
 20
502.7051547994291
 30
0.0
 40
3.831417624521073
  1
BNO.2
  7
ＭＳ ゴシック
 72
     1
 11
399.9999999999999
 21
502.005
 31
0.0
100
AcDbText
 73
     1
  0
LINE
  5
E9
330
1F
100
AcDbEntity
  8
現況線
  6
Continuous
 62
     7
370
    18
100
AcDbLine
 10
700.0
 20
425.37
 30
0.0
 11
735.29
 21
424.92
 31
0.0
  0
LINE
  5
EA
330
1F
100
AcDbEntity
  8
現況線
  6
Continuous
 62
     7
370
    18
100
AcDbLine
 10
672.9200000000001
 20
425.43
 30
0.0
 11
700.0
 21
425.37
 31
0.0
  0
LINE
  5
EB
330
1F
100
AcDbEntity
  8
現況線
  6
Continuous
 62
     7
370
    18
100
AcDbLine
 10
647.61
 20
425.31
 30
0.0
 11
672.9200000000001
 21
425.43
 31
0.0
  0
LINE
  5
EC
330
1F
100
AcDbEntity
  8
現況線
  6
Continuous
 62
     7
370
    18
100
AcDbLine
 10
643.54
 20
425.29
 30
0.0
 11
647.61
 21
425.31
 31
0.0
  0
LINE
  5
ED
330
1F
100
AcDbEntity
  8
現況線
  6
Continuous
 62
     7
370
    18
100
AcDbLine
 10
643.54
 20
427.16
 30
0.0
 11
643.54
 21
425.29
 31
0.0
  0
LINE
  5
EE
330
1F
100
AcDbEntity
  8
現況線
  6
Continuous
 62
     7
370
    18
100
AcDbLine
 10
639.52
 20
427.16
 30
0.0
 11
643.54
 21
427.16
 31
0.0
  0
LINE
  5
EF
330
1F
100
AcDbEntity
  8
現況線
  6
Continuous
 62
     7
370
    18
100
AcDbLine
 10
639.52
 20
429.03
 30
0.0
 11
639.52
 21
427.16
 31
0.0
  0
LINE
  5
F0
330
1F
100
AcDbEntity
  8
現況線
  6
Continuous
 62
     7
370
    18
100
AcDbLine
 10
635.5
 20
429.03
 30
0.0
 11
639.52
 21
429.03
 31
0.0
  0
LINE
  5
F1
330
1F
100
AcDbEntity
  8
現況線
  6
Continuous
 62
     7
370
    18
100
AcDbLine
 10
635.5
 20
430.9
 30
0.0
 11
635.5
 21
429.03
 31
0.0
  0
LINE
  5
F2
330
1F
100
AcDbEntity
  8
現況線
  6
Continuous
 62
     7
370
    18
100
AcDbLine
 10
631.48
 20
430.9
 30
0.0
 11
635.5
 21
430.9
 31
0.0
  0
LINE
  5
F3
330
1F
100
AcDbEntity
  8
現況線
  6
Continuous
 62
     7
370
    18
100
AcDbLine
 10
631.48
 20
432.77
 30
0.0
 11
631.48
 21
430.9
 31
0.0
  0
LINE
  5
F4
330
1F
100
AcDbEntity
  8
現況線
  6
Continuous
 62
     7
370
    18
100
AcDbLine
 10
627.46
 20
432.77
 30
0.0
 11
631.48
 21
432.77
 31
0.0
  0
LINE
  5
F5
330
1F
100
AcDbEntity
  8
現況線
  6
Continuous
 62
     7
370
    18
100
AcDbLine
 10
627.46
 20
434.64
 30
0.0
 11
627.46
 21
432.77
 31
0.0
  0
LINE
  5
F6
330
1F
100
AcDbEntity
  8
現況線
  6
Continuous
 62
     7
370
    18
100
AcDbLine
 10
623.44
 20
434.64
 30
0.0
 11
627.46
 21
434.64
 31
0.0
  0
LINE
  5
F7
330
1F
100
AcDbEntity
  8
現況線
  6
Continuous
 62
     7
370
    18
100
AcDbLine
 10
623.44
 20
436.51
 30
0.0
 11
623.44
 21
434.64
 31
0.0
  0
LINE
  5
F8
330
1F
100
AcDbEntity
  8
現況線
  6
Continuous
 62
     7
370
    18
100
AcDbLine
 10
615.85
 20
436.64
 30
0.0
 11
623.44
 21
436.51
 31
0.0
  0
LINE
  5
F9
330
1F
100
AcDbEntity
  8
現況線
  6
Continuous
 62
     7
370
    18
100
AcDbLine
 10
606.41
 20
437.67
 30
0.0
 11
615.85
 21
436.64
 31
0.0
  0
LINE
  5
FA
330
1F
100
AcDbEntity
  8
現況線
  6
Continuous
 62
     7
370
    18
100
AcDbLine
 10
606.41
 20
438.47
 30
0.0
 11
606.41
 21
437.67
 31
0.0
  0
LINE
  5
FB
330
1F
100
AcDbEntity
  8
現況線
  6
Continuous
 62
     7
370
    18
100
AcDbLine
 10
595.25
 20
438.53
 30
0.0
 11
606.41
 21
438.47
 31
0.0
  0
LINE
  5
FC
330
1F
100
AcDbEntity
  8
作業ﾚｲﾔ1
  6
USER_6
 62
     7
370
    18
100
AcDbLine
 10
595.25
 20
462.21
 30
0.0
 11
595.25
 21
438.53
 31
0.0
  0
LINE
  5
FD
330
1F
100
AcDbEntity
  8
作業ﾚｲﾔ1
  6
USER_6
 62
     7
370
    18
100
AcDbLine
 10
625.39
 20
462.24
 30
0.0
 11
595.25
 21
462.21
 31
0.0
  0
LINE
  5
FE
330
1F
100
AcDbEntity
  8
作業ﾚｲﾔ1
  6
USER_6
 62
     7
370
    18
100
AcDbLine
 10
626.72
 20
469.62
 30
0.0
 11
625.39
 21
462.24
 31
0.0
  0
LINE
  5
FF
330
1F
100
AcDbEntity
  8
作業ﾚｲﾔ1
  6
USER_6
 62
     7
370
    18
100
AcDbLine
 10
625.5699999999999
 20
469.62
 30
0.0
 11
626.72
 21
469.62
 31
0.0
  0
LINE
  5
100
330
1F
100
AcDbEntity
  8
作業ﾚｲﾔ1
  6
USER_6
 62
     7
370
    18
100
AcDbLine
 10
625.37
 20
468.3
 30
0.0
 11
625.5699999999999
 21
469.62
 31
0.0
  0
LINE
  5
101
330
1F
100
AcDbEntity
  8
作業ﾚｲﾔ1
  6
USER_6
 62
     7
370
    18
100
AcDbLine
 10
563.08
 20
468.39
 30
0.0
 11
625.37
 21
468.3
 31
0.0
  0
LINE
  5
102
330
1F
100
AcDbEntity
  8
作業ﾚｲﾔ1
  6
USER_6
 62
     7
370
    18
100
AcDbLine
 10
500.8
 20
468.3
 30
0.0
 11
563.0799999999999
 21
468.39
 31
0.0
  0
LINE
  5
103
330
1F
100
AcDbEntity
  8
作業ﾚｲﾔ1
  6
USER_6
 62
     7
370
    18
100
AcDbLine
 10
500.6
 20
469.55
 30
0.0
 11
500.8
 21
468.3
 31
0.0
  0
LINE
  5
104
330
1F
100
AcDbEntity
  8
作業ﾚｲﾔ1
  6
USER_6
 62
     7
370
    18
100
AcDbLine
 10
499.45
 20
469.55
 30
0.0
 11
500.6
 21
469.55
 31
0.0
  0
LINE
  5
105
330
1F
100
AcDbEntity
  8
作業ﾚｲﾔ1
  6
USER_6
 62
     7
370
    18
100
AcDbLine
 10
500.71
 20
465.94
 30
0.0
 11
499.45
 21
469.55
 31
0.0
  0
LINE
  5
106
330
1F
100
AcDbEntity
  8
作業ﾚｲﾔ1
  6
USER_6
 62
     7
370
    18
100
AcDbLine
 10
530.86
 20
466.01
 30
0.0
 11
500.71
 21
465.94
 31
0.0
  0
LINE
  5
107
330
1F
100
AcDbEntity
  8
作業ﾚｲﾔ1
  6
USER_6
 62
     7
370
    18
100
AcDbLine
 10
530.86
 20
438.41
 30
0.0
 11
530.86
 21
466.01
 31
0.0
  0
LINE
  5
108
330
1F
100
AcDbEntity
  8
現況線
  6
Continuous
 62
     7
370
    18
100
AcDbLine
 10
521.16
 20
438.43
 30
0.0
 11
530.86
 21
438.41
 31
0.0
  0
LINE
  5
109
330
1F
100
AcDbEntity
  8
現況線
  6
Continuous
 62
     7
370
    18
100
AcDbLine
 10
521.16
 20
436.8
 30
0.0
 11
521.16
 21
438.43
 31
0.0
  0
LINE
  5
10A
330
1F
100
AcDbEntity
  8
現況線
  6
Continuous
 62
     7
370
    18
100
AcDbLine
 10
505.93
 20
436.25
 30
0.0
 11
521.16
 21
436.8
 31
0.0
  0
LINE
  5
10B
330
1F
100
AcDbEntity
  8
現況線
  6
Continuous
 62
     7
370
    18
100
AcDbLine
 10
505.93
 20
437.35
 30
0.0
 11
505.93
 21
436.25
 31
0.0
  0
LINE
  5
10C
330
1F
100
AcDbEntity
  8
現況線
  6
Continuous
 62
     7
370
    18
100
AcDbLine
 10
504.89
 20
437.15
 30
0.0
 11
505.93
 21
437.35
 31
0.0
  0
LINE
  5
10D
330
1F
100
AcDbEntity
  8
現況線
  6
Continuous
 62
     7
370
    18
100
AcDbLine
 10
504.68
 20
436.6
 30
0.0
 11
504.89
 21
437.15
 31
0.0
  0
LINE
  5
10E
330
1F
100
AcDbEntity
  8
現況線
  6
Continuous
 62
     7
370
    18
100
AcDbLine
 10
400.0
 20
436.3
 30
0.0
 11
504.68
 21
436.6
 31
0.0
  0
LINE
  5
10F
330
1F
100
AcDbEntity
  8
現況線
  6
Continuous
 62
     7
370
    18
100
AcDbLine
 10
58.41000000000003
 20
425.57
 30
0.0
 11
53.5
 21
425.76
 31
0.0
  0
LINE
  5
110
330
1F
100
AcDbEntity
  8
現況線
  6
Continuous
 62
     7
370
    18
100
AcDbLine
 10
58.56
 20
426.88
 30
0.0
 11
58.40999999999997
 21
425.57
 31
0.0
  0
LINE
  5
111
330
1F
100
AcDbEntity
  8
現況線
  6
Continuous
 62
     7
370
    18
100
AcDbLine
 10
60.10000000000002
 20
426.88
 30
0.0
 11
58.56000000000006
 21
426.88
 31
0.0
  0
LINE
  5
112
330
1F
100
AcDbEntity
  8
現況線
  6
Continuous
 62
     7
370
    18
100
AcDbLine
 10
61.5
 20
427.05
 30
0.0
 11
60.10000000000002
 21
426.88
 31
0.0
  0
LINE
  5
113
330
1F
100
AcDbEntity
  8
現況線
  6
Continuous
 62
     7
370
    18
100
AcDbLine
 10
73.57999999999998
 20
427.41
 30
0.0
 11
61.5
 21
427.05
 31
0.0
  0
LINE
  5
114
330
1F
100
AcDbEntity
  8
現況線
  6
Continuous
 62
     7
370
    18
100
AcDbLine
 10
80.24000000000001
 20
427.21
 30
0.0
 11
73.57999999999998
 21
427.41
 31
0.0
  0
LINE
  5
115
330
1F
100
AcDbEntity
  8
現況線
  6
Continuous
 62
     7
370
    18
100
AcDbLine
 10
81.75
 20
427.3
 30
0.0
 11
80.24000000000001
 21
427.21
 31
0.0
  0
LINE
  5
116
330
1F
100
AcDbEntity
  8
現況線
  6
Continuous
 62
     7
370
    18
100
AcDbLine
 10
81.75
 20
429.1
 30
0.0
 11
81.75
 21
427.3
 31
0.0
  0
LINE
  5
117
330
1F
100
AcDbEntity
  8
現況線
  6
Continuous
 62
     7
370
    18
100
AcDbLine
 10
82.73000000000002
 20
429.1
 30
0.0
 11
81.75
 21
429.1
 31
0.0
  0
LINE
  5
118
330
1F
100
AcDbEntity
  8
現況線
  6
Continuous
 62
     7
370
    18
100
AcDbLine
 10
83.69999999999999
 20
429.1
 30
0.0
 11
82.72999999999996
 21
429.1
 31
0.0
  0
LINE
  5
119
330
1F
100
AcDbEntity
  8
現況線
  6
Continuous
 62
     7
370
    18
100
AcDbLine
 10
83.69999999999999
 20
427.2
 30
0.0
 11
83.69999999999999
 21
429.1
 31
0.0
  0
LINE
  5
11A
330
1F
100
AcDbEntity
  8
現況線
  6
Continuous
 62
     7
370
    18
100
AcDbLine
 10
101.69
 20
426.89
 30
0.0
 11
83.69999999999999
 21
427.2
 31
0.0
  0
LINE
  5
11B
330
1F
100
AcDbEntity
  8
現況線
  6
Continuous
 62
     7
370
    18
100
AcDbLine
 10
101.69
 20
426.89
 30
0.0
 11
101.69
 21
440.81
 31
0.0
  0
ARC
  5
11C
330
1F
100
AcDbEntity
  8
現況線
  6
Continuous
 62
     7
370
    18
100
AcDbCircle
 10
101.69
 20
429.85
 30
0.0
 40
0.75
100
AcDbArc
 50
270.0
 51
90.0
  0
HATCH
  5
11D
330
1F
100
AcDbEntity
  8
現況線
  6
Continuous
 62
     7
370
    18
100
AcDbHatch
 10
0.0
 20
0.0
 30
0.0
210
0.0
220
0.0
230
1.0
  2
SOLID
 70
     1
 71
     0
 91
        1
 92
        3
 72
     1
 73
     1
 93
        2
 10
101.69
 20
429.1
 42
1.0
 10
101.69
 20
430.6
 42
0.0
 97
        0
 75
     0
 76
     1
 98
        0
450
        0
451
        0
460
0.0
461
0.0
452
        1
462
0.0
453
        2
463
0.0
 63
     5
421
      255
463
1.0
 63
   254
421
 13750783
470

  0
ARC
  5
11E
330
1F
100
AcDbEntity
  8
現況線
  6
Continuous
 62
     7
370
    18
100
AcDbCircle
 10
101.69
 20
433.85
 30
0.0
 40
0.75
100
AcDbArc
 50
270.0
 51
90.0
  0
HATCH
  5
11F
330
1F
100
AcDbEntity
  8
現況線
  6
Continuous
 62
     7
370
    18
100
AcDbHatch
 10
0.0
 20
0.0
 30
0.0
210
0.0
220
0.0
230
1.0
  2
SOLID
 70
     1
 71
     0
 91
        1
 92
        3
 72
     1
 73
     1
 93
        2
 10
101.69
 20
433.1
 42
1.0
 10
101.69
 20
434.6
 42
0.0
 97
        0
 75
     0
 76
     1
 98
        0
450
        0
451
        0
460
0.0
461
0.0
452
        1
462
0.0
453
        2
463
0.0
 63
     5
421
      255
463
1.0
 63
   254
421
 13750783
470

  0
ARC
  5
120
330
1F
100
AcDbEntity
  8
現況線
  6
Continuous
 62
     7
370
    18
100
AcDbCircle
 10
101.69
 20
437.85
 30
0.0
 40
0.75
100
AcDbArc
 50
270.0
 51
90.0
  0
HATCH
  5
121
330
1F
100
AcDbEntity
  8
現況線
  6
Continuous
 62
     7
370
    18
100
AcDbHatch
 10
0.0
 20
0.0
 30
0.0
210
0.0
220
0.0
230
1.0
  2
SOLID
 70
     1
 71
     0
 91
        1
 92
        3
 72
     1
 73
     1
 93
        2
 10
101.69
 20
437.1
 42
1.0
 10
101.69
 20
438.6
 42
0.0
 97
        0
 75
     0
 76
     1
 98
        0
450
        0
451
        0
460
0.0
461
0.0
452
        1
462
0.0
453
        2
463
0.0
 63
     5
421
      255
463
1.0
 63
   254
421
 13750783
470

  0
LINE
  5
122
330
1F
100
AcDbEntity
  8
現況線
  6
Continuous
 62
     7
370
    18
100
AcDbLine
 10
102.89
 20
440.81
 30
0.0
 11
101.69
 21
440.81
 31
0.0
  0
LINE
  5
123
330
1F
100
AcDbEntity
  8
現況線
  6
Continuous
 62
     7
370
    18
100
AcDbLine
 10
104.09
 20
440.81
 30
0.0
 11
102.89
 21
440.81
 31
0.0
  0
LINE
  5
124
330
1F
100
AcDbEntity
  8
現況線
  6
Continuous
 62
     7
370
    18
100
AcDbLine
 10
104.09
 20
438.67
 30
0.0
 11
104.09
 21
440.81
 31
0.0
  0
LINE
  5
125
330
1F
100
AcDbEntity
  8
現況線
  6
Continuous
 62
     7
370
    18
100
AcDbLine
 10
145.3
 20
438.12
 30
0.0
 11
104.09
 21
438.67
 31
0.0
  0
LINE
  5
126
330
1F
100
AcDbEntity
  8
現況線
  6
Continuous
 62
     7
370
    18
100
AcDbLine
 10
145.3
 20
440.02
 30
0.0
 11
145.3
 21
438.12
 31
0.0
  0
LINE
  5
127
330
1F
100
AcDbEntity
  8
現況線
  6
Continuous
 62
     7
370
    18
100
AcDbLine
 10
146.4
 20
440.02
 30
0.0
 11
145.3
 21
440.02
 31
0.0
  0
LINE
  5
128
330
1F
100
AcDbEntity
  8
現況線
  6
Continuous
 62
     7
370
    18
100
AcDbLine
 10
147.5
 20
440.02
 30
0.0
 11
146.4
 21
440.02
 31
0.0
  0
LINE
  5
129
330
1F
100
AcDbEntity
  8
現況線
  6
Continuous
 62
     7
370
    18
100
AcDbLine
 10
147.5
 20
437.42
 30
0.0
 11
147.5
 21
440.02
 31
0.0
  0
LINE
  5
12A
330
1F
100
AcDbEntity
  8
現況線
  6
Continuous
 62
     7
370
    18
100
AcDbLine
 10
207.37
 20
435.15
 30
0.0
 11
147.5
 21
437.42
 31
0.0
  0
LINE
  5
12B
330
1F
100
AcDbEntity
  8
現況線
  6
Continuous
 62
     7
370
    18
100
AcDbLine
 10
207.37
 20
434.7
 30
0.0
 11
207.37
 21
435.15
 31
0.0
  0
LINE
  5
12C
330
1F
100
AcDbEntity
  8
現況線
  6
Continuous
 62
     7
370
    18
100
AcDbLine
 10
213.55
 20
434.55
 30
0.0
 11
207.37
 21
434.7
 31
0.0
  0
LINE
  5
12D
330
1F
100
AcDbEntity
  8
現況線
  6
Continuous
 62
     7
370
    18
100
AcDbLine
 10
213.55
 20
436.07
 30
0.0
 11
213.55
 21
434.55
 31
0.0
  0
LINE
  5
12E
330
1F
100
AcDbEntity
  8
現況線
  6
Continuous
 62
     7
370
    18
100
AcDbLine
 10
225.07
 20
436.05
 30
0.0
 11
213.55
 21
436.07
 31
0.0
  0
LINE
  5
12F
330
1F
100
AcDbEntity
  8
現況線
  6
Continuous
 62
     7
370
    18
100
AcDbLine
 10
225.07
 20
434.38
 30
0.0
 11
225.07
 21
436.05
 31
0.0
  0
LINE
  5
130
330
1F
100
AcDbEntity
  8
現況線
  6
Continuous
 62
     7
370
    18
100
AcDbLine
 10
231.73
 20
434.37
 30
0.0
 11
225.07
 21
434.38
 31
0.0
  0
LINE
  5
131
330
1F
100
AcDbEntity
  8
現況線
  6
Continuous
 62
     7
370
    18
100
AcDbLine
 10
231.73
 20
435.25
 30
0.0
 11
231.73
 21
434.37
 31
0.0
  0
LINE
  5
132
330
1F
100
AcDbEntity
  8
現況線
  6
Continuous
 62
     7
370
    18
100
AcDbLine
 10
294.43
 20
435.14
 30
0.0
 11
231.73
 21
435.25
 31
0.0
  0
LINE
  5
133
330
1F
100
AcDbEntity
  8
現況線
  6
Continuous
 62
     7
370
    18
100
AcDbLine
 10
294.43
 20
434.38
 30
0.0
 11
294.43
 21
435.14
 31
0.0
  0
LINE
  5
134
330
1F
100
AcDbEntity
  8
現況線
  6
Continuous
 62
     7
370
    18
100
AcDbLine
 10
314.02
 20
434.52
 30
0.0
 11
294.43
 21
434.38
 31
0.0
  0
LINE
  5
135
330
1F
100
AcDbEntity
  8
現況線
  6
Continuous
 62
     7
370
    18
100
AcDbLine
 10
314.02
 20
435.25
 30
0.0
 11
314.02
 21
434.52
 31
0.0
  0
LINE
  5
136
330
1F
100
AcDbEntity
  8
現況線
  6
Continuous
 62
     7
370
    18
100
AcDbLine
 10
400.0
 20
436.3
 30
0.0
 11
314.02
 21
435.25
 31
0.0
  0
LINE
  5
137
330
1F
100
AcDbEntity
  8
中心線
  6
chain
 62
     7
370
    18
100
AcDbLine
 10
400.0
 20
416.3
 30
0.0
 11
400.0
 21
456.3
 31
0.0
  0
TEXT
  5
138
330
1F
100
AcDbEntity
  8
ＧＨ
  6
Continuous
 62
     7
370
    13
100
AcDbText
 10
400.0
 20
192.3525773997145
 30
0.0
 40
1.915708812260537
  1
GH=2.61
  7
ＭＳ ゴシック
 11
400.0
 21
192.0025
 31
0.0
100
AcDbText
 73
     1
  0
TEXT
  5
139
330
1F
100
AcDbEntity
  8
ＰＨ
  6
Continuous
 62
     7
370
    13
100
AcDbText
 10
400.0
 20
195.3525773997145
 30
0.0
 40
1.915708812260537
  1
PH=2.72
  7
ＭＳ ゴシック
 11
400.0
 21
195.0025
 31
0.0
100
AcDbText
 73
     1
  0
TEXT
  5
13A
330
1F
100
AcDbEntity
  8
ＧＨ
  6
Continuous
 62
     7
370
    13
100
AcDbText
 10
400.0
 20
342.3525773997146
 30
0.0
 40
1.915708812260537
  1
GH=3.92
  7
ＭＳ ゴシック
 11
400.0
 21
342.0025
 31
0.0
100
AcDbText
 73
     1
  0
TEXT
  5
13B
330
1F
100
AcDbEntity
  8
ＰＨ
  6
Continuous
 62
     7
370
    13
100
AcDbText
 10
400.0
 20
345.3525773997146
 30
0.0
 40
1.915708812260537
  1
PH=3.93
  7
ＭＳ ゴシック
 11
400.0
 21
345.0025
 31
0.0
100
AcDbText
 73
     1
  0
TEXT
  5
13C
330
1F
100
AcDbEntity
  8
ＧＨ
  6
Continuous
 62
     7
370
    13
100
AcDbText
 10
399.9999999999999
 20
492.3525773997146
 30
0.0
 40
1.915708812260537
  1
GH=3.63
  7
ＭＳ ゴシック
 11
399.9999999999999
 21
492.0025
 31
0.0
100
AcDbText
 73
     1
  0
TEXT
  5
13D
330
1F
100
AcDbEntity
  8
ＰＨ
  6
Continuous
 62
     7
370
    13
100
AcDbText
 10
399.9999999999999
 20
495.3525773997146
 30
0.0
 40
1.915708812260537
  1
PH=3.64
  7
ＭＳ ゴシック
 11
399.9999999999999
 21
495.0025
 31
0.0
100
AcDbText
 73
     1
  0
LINE
  5
13E
330
1F
100
AcDbEntity
  8
作業ﾚｲﾔ1
  6
USER_6
 62
     7
370
    18
100
AcDbLine
 10
101.18
 20
125.48
 30
0.0
 11
132.91
 21
125.41
 31
0.0
  0
LINE
  5
13F
330
1F
100
AcDbEntity
  8
作業ﾚｲﾔ1
  6
USER_6
 62
     7
370
    18
100
AcDbLine
 10
132.91
 20
125.41
 30
0.0
 11
267.21
 21
124.64
 31
0.0
  0
LINE
  5
140
330
1F
100
AcDbEntity
  8
作業ﾚｲﾔ1
  6
USER_6
 62
     7
370
    18
100
AcDbLine
 10
267.21
 20
124.64
 30
0.0
 11
400.92
 21
124.47
 31
0.0
  0
LINE
  5
141
330
1F
100
AcDbEntity
  8
作業ﾚｲﾔ1
  6
USER_6
 62
     7
370
    18
100
AcDbLine
 10
400.92
 20
124.47
 30
0.0
 11
521.52
 21
124.17
 31
0.0
  0
LINE
  5
142
330
1F
100
AcDbEntity
  8
作業ﾚｲﾔ1
  6
USER_6
 62
     7
370
    18
100
AcDbLine
 10
521.52
 20
124.17
 30
0.0
 11
661.26
 21
124.38
 31
0.0
  0
LINE
  5
143
330
1F
100
AcDbEntity
  8
作業ﾚｲﾔ1
  6
USER_6
 62
     7
370
    18
100
AcDbLine
 10
661.26
 20
124.38
 30
0.0
 11
700.0
 21
124.3
 31
0.0
  0
LINE
  5
144
330
1F
100
AcDbEntity
  8
作業ﾚｲﾔ1
  6
USER_6
 62
     7
370
    18
100
AcDbLine
 10
659.04
 20
126.0465049377415
 30
0.0
 11
659.04
 21
127.58
 31
0.0
  0
LINE
  5
145
330
1F
100
AcDbEntity
  8
作業ﾚｲﾔ1
  6
USER_6
 62
     7
370
    18
100
AcDbLine
 10
659.04
 20
127.58
 30
0.0
 11
401.32
 21
127.63
 31
0.0
  0
LINE
  5
146
330
1F
100
AcDbEntity
  8
作業ﾚｲﾔ1
  6
USER_6
 62
     7
370
    18
100
AcDbLine
 10
401.32
 20
127.63
 30
0.0
 11
133.48
 21
128.38
 31
0.0
  0
LINE
  5
147
330
1F
100
AcDbEntity
  8
作業ﾚｲﾔ1
  6
USER_6
 62
     7
370
    18
100
AcDbLine
 10
133.48
 20
128.38
 30
0.0
 11
133.48
 21
126.8785674848914
 31
0.0
  0
LINE
  5
148
330
1F
100
AcDbEntity
  8
作業ﾚｲﾔ1
  6
USER_6
 62
     7
370
    18
100
AcDbLine
 10
133.48
 20
128.38
 30
0.0
 11
133.48
 21
148.88
 31
0.0
  0
LINE
  5
149
330
1F
100
AcDbEntity
  8
作業ﾚｲﾔ1
  6
USER_6
 62
     7
370
    18
100
AcDbLine
 10
133.48
 20
148.88
 30
0.0
 11
659.04
 21
148.08
 31
0.0
  0
LINE
  5
14A
330
1F
100
AcDbEntity
  8
作業ﾚｲﾔ1
  6
USER_6
 62
     7
370
    18
100
AcDbLine
 10
659.04
 20
148.08
 30
0.0
 11
659.04
 21
127.58
 31
0.0
  0
LINE
  5
14B
330
1F
100
AcDbEntity
  8
作業ﾚｲﾔ1
  6
USER_1
 62
     7
370
    18
100
AcDbLine
 10
600.24
 20
438.5031720430107
 30
0.0
 11
600.24
 21
444.403257312368
 31
0.0
  0
LINE
  5
14C
330
1F
100
AcDbEntity
  8
作業ﾚｲﾔ1
  6
USER_1
 62
     7
370
    18
100
AcDbLine
 10
600.24
 20
444.403257312368
 30
0.0
 11
612.51
 21
444.3372895704326
 31
0.0
  0
LINE
  5
14D
330
1F
100
AcDbEntity
  8
作業ﾚｲﾔ1
  6
USER_1
 62
     7
370
    18
100
AcDbLine
 10
612.51
 20
444.3372895704326
 30
0.0
 11
612.51
 21
437.0044279661017
 31
0.0
  0
LINE
  5
14E
330
1F
100
AcDbEntity
  8
作業ﾚｲﾔ1
  6
Continuous
 62
     7
370
    18
100
AcDbLine
 10
530.86
 20
438.41
 30
0.0
 11
561.9300000000001
 21
438.76
 31
0.0
  0
LINE
  5
14F
330
1F
100
AcDbEntity
  8
作業ﾚｲﾔ1
  6
Continuous
 62
     7
370
    18
100
AcDbLine
 10
561.9300000000001
 20
438.76
 30
0.0
 11
595.25
 21
438.53
 31
0.0
  0
LINE
  5
150
330
1F
100
AcDbEntity
  8
作業ﾚｲﾔ1
  6
Continuous
 62
     7
370
    18
100
AcDbLine
 10
130.56
 20
126.5
 30
0.0
 11
130.56
 21
125.5
 31
0.0
  0
LINE
  5
151
330
1F
100
AcDbEntity
  8
作業ﾚｲﾔ1
  6
Continuous
 62
     7
370
    18
100
AcDbLine
 10
107.28
 20
125.7
 30
0.0
 11
107.28
 21
124.7
 31
0.0
  0
LINE
  5
152
330
1F
100
AcDbEntity
  8
作業ﾚｲﾔ1
  6
Continuous
 62
     7
370
    18
100
AcDbLine
 10
101.18
 20
125.48
 30
0.0
 11
101.18
 21
124.48
 31
0.0
  0
LINE
  5
153
330
1F
100
AcDbEntity
  8
作業ﾚｲﾔ1
  6
Continuous
 62
     7
370
    18
100
AcDbLine
 10
91.89999999999998
 20
125.65
 30
0.0
 11
91.89999999999998
 21
124.65
 31
0.0
  0
LINE
  5
154
330
1F
100
AcDbEntity
  8
測点名
  6
Continuous
 62
     7
370
    18
100
AcDbLine
 10
83.87
 20
200.0
 30
0.0
 11
102.37
 21
200.0
 31
0.0
  0
LINE
  5
155
330
1F
100
AcDbEntity
  8
測点名
  6
Continuous
 62
     7
370
    18
100
AcDbLine
 10
83.87
 20
201.0
 30
0.0
 11
102.37
 21
201.0
 31
0.0
  0
TEXT
  5
156
330
1F
100
AcDbEntity
  8
測点名
  6
Continuous
 62
     7
370
    13
100
AcDbText
 10
89.38296642850264
 20
202.7051547994291
 30
0.0
 40
3.831417624521073
  1
B0L
  7
ＭＳ ゴシック
 72
     1
 11
93.12
 21
202.005
 31
0.0
100
AcDbText
 73
     1
  0
LINE
  5
157
330
1F
100
AcDbEntity
  8
中心線
  6
chain
 62
     7
370
    18
100
AcDbLine
 10
93.12
 20
105.55
 30
0.0
 11
93.12
 21
145.55
 31
0.0
  0
TEXT
  5
158
330
1F
100
AcDbEntity
  8
ＧＨ
  6
Continuous
 62
     7
370
    13
100
AcDbText
 10
93.12
 20
192.3525773997145
 30
0.0
 40
1.915708812260537
  1
GH=2.56
  7
ＭＳ ゴシック
 11
93.12
 21
192.0025
 31
0.0
100
AcDbText
 73
     1
  0
TEXT
  5
159
330
1F
100
AcDbEntity
  8
ＰＨ
  6
Continuous
 62
     7
370
    13
100
AcDbText
 10
93.12
 20
195.3525773997145
 30
0.0
 40
1.915708812260537
  1
PH=2.56
  7
ＭＳ ゴシック
 11
93.12
 21
195.0025
 31
0.0
100
AcDbText
 73
     1
  0
TEXT
  5
15A
330
1F
100
AcDbEntity
  8
作業ﾚｲﾔ1
  6
Continuous
 62
     7
370
    13
100
AcDbText
 10
118.0454280052733
 20
122.6174897954432
 30
0.0
 40
1.915708812260537
  1
As
  7
ＭＳ ゴシック
 72
     1
 11
119.2911058624391
 21
123.5753442015735
 31
0.0
100
AcDbText
 73
     2
  0
TEXT
  5
15B
330
1F
100
AcDbEntity
  8
作業ﾚｲﾔ1
  6
Continuous
 62
     7
370
    13
100
AcDbText
 10
254.4309328570052
 20
285.2721507101078
 30
0.0
 40
1.915708812260537
  1
ハートプール
  7
ＭＳ ゴシック
 72
     1
 11
261.905
 21
286.230005116238
 31
0.0
100
AcDbText
 73
     2
  0
LINE
  5
15C
330
1F
100
AcDbEntity
  8
作業ﾚｲﾔ1
  6
Continuous
 62
     7
370
    18
100
AcDbLine
 10
340.81
 20
288.63
 30
0.0
 11
340.81
 21
286.35
 31
0.0
  0
LINE
  5
15D
330
1F
100
AcDbEntity
  8
作業ﾚｲﾔ1
  6
Continuous
 62
     7
370
    18
100
AcDbLine
 10
338.47
 20
287.35
 30
0.0
 11
338.47
 21
286.35
 31
0.0
  0
LINE
  5
15E
330
1F
100
AcDbEntity
  8
作業ﾚｲﾔ1
  6
Continuous
 62
     7
370
    18
100
AcDbLine
 10
183.45
 20
288.54
 30
0.0
 11
183.45
 21
286.5099999999999
 31
0.0
  0
LINE
  5
15F
330
1F
100
AcDbEntity
  8
作業ﾚｲﾔ1
  6
Continuous
 62
     7
370
    18
100
AcDbLine
 10
185.46
 20
287.51
 30
0.0
 11
185.46
 21
286.5099999999999
 31
0.0
  0
LINE
  5
160
330
1F
100
AcDbEntity
  8
作業ﾚｲﾔ1
  6
Continuous
 62
     7
370
    18
100
AcDbLine
 10
99.32999999999998
 20
276.76
 30
0.0
 11
99.32999999999998
 21
275.7599999999999
 31
0.0
  0
LINE
  5
161
330
1F
100
AcDbEntity
  8
作業ﾚｲﾔ1
  6
Continuous
 62
     7
370
    18
100
AcDbLine
 10
97.38
 20
277.52
 30
0.0
 11
97.38
 21
275.7599999999999
 31
0.0
  0
LINE
  5
162
330
1F
100
AcDbEntity
  8
作業ﾚｲﾔ1
  6
Continuous
 62
     7
370
    18
100
AcDbLine
 10
75.90000000000003
 20
277.46
 30
0.0
 11
75.90000000000003
 21
274.98
 31
0.0
  0
LINE
  5
163
330
1F
100
AcDbEntity
  8
作業ﾚｲﾔ1
  6
Continuous
 62
     7
370
    18
100
AcDbLine
 10
74.15999999999997
 20
275.98
 30
0.0
 11
74.15999999999997
 21
274.98
 31
0.0
  0
LINE
  5
164
330
1F
100
AcDbEntity
  8
作業ﾚｲﾔ1
  6
Continuous
 62
     7
370
    18
100
AcDbLine
 10
69.37
 20
276.14
 30
0.0
 11
69.37
 21
275.1399999999999
 31
0.0
  0
LINE
  5
165
330
1F
100
AcDbEntity
  8
作業ﾚｲﾔ1
  6
Continuous
 62
     7
370
    18
100
AcDbLine
 10
98.36000000000001
 20
279.13
 30
0.0
 11
98.36000000000001
 21
280.78
 31
0.0
  0
LINE
  5
166
330
1F
100
AcDbEntity
  8
作業ﾚｲﾔ1
  6
Continuous
 62
     7
370
    18
100
AcDbLine
 10
98.36000000000001
 20
281.1799999999999
 30
0.0
 11
98.36000000000001
 21
281.5799999999999
 31
0.0
  0
LINE
  5
167
330
1F
100
AcDbEntity
  8
作業ﾚｲﾔ1
  6
Continuous
 62
     7
370
    18
100
AcDbLine
 10
98.36000000000001
 20
281.9799999999999
 30
0.0
 11
98.36000000000001
 21
283.9799999999999
 31
0.0
  0
LINE
  5
168
330
1F
100
AcDbEntity
  8
作業ﾚｲﾔ1
  6
Continuous
 62
     7
370
    18
100
AcDbLine
 10
98.36000000000001
 20
284.3799999999999
 30
0.0
 11
98.36000000000001
 21
284.7799999999999
 31
0.0
  0
LINE
  5
169
330
1F
100
AcDbEntity
  8
作業ﾚｲﾔ1
  6
Continuous
 62
     7
370
    18
100
AcDbLine
 10
98.36000000000001
 20
285.1799999999998
 30
0.0
 11
98.36000000000001
 21
287.1799999999998
 31
0.0
  0
LINE
  5
16A
330
1F
100
AcDbEntity
  8
作業ﾚｲﾔ1
  6
Continuous
 62
     7
370
    18
100
AcDbLine
 10
98.36000000000001
 20
287.5799999999998
 30
0.0
 11
98.36000000000001
 21
287.9799999999998
 31
0.0
  0
LINE
  5
16B
330
1F
100
AcDbEntity
  8
作業ﾚｲﾔ1
  6
Continuous
 62
     7
370
    18
100
AcDbLine
 10
98.36000000000001
 20
288.3799999999998
 30
0.0
 11
98.36000000000001
 21
290.3799999999998
 31
0.0
  0
LINE
  5
16C
330
1F
100
AcDbEntity
  8
作業ﾚｲﾔ1
  6
Continuous
 62
     7
370
    18
100
AcDbLine
 10
98.36000000000001
 20
290.7799999999997
 30
0.0
 11
98.36000000000001
 21
291.1799999999997
 31
0.0
  0
LINE
  5
16D
330
1F
100
AcDbEntity
  8
作業ﾚｲﾔ1
  6
Continuous
 62
     7
370
    18
100
AcDbLine
 10
98.36000000000001
 20
291.5799999999997
 30
0.0
 11
98.36000000000001
 21
293.5799999999997
 31
0.0
  0
LINE
  5
16E
330
1F
100
AcDbEntity
  8
作業ﾚｲﾔ1
  6
Continuous
 62
     7
370
    18
100
AcDbLine
 10
98.36000000000001
 20
293.9799999999997
 30
0.0
 11
98.36000000000001
 21
294.3799999999997
 31
0.0
  0
LINE
  5
16F
330
1F
100
AcDbEntity
  8
作業ﾚｲﾔ1
  6
Continuous
 62
     7
370
    18
100
AcDbLine
 10
98.36000000000001
 20
294.7799999999996
 30
0.0
 11
98.36000000000001
 21
296.7799999999996
 31
0.0
  0
LINE
  5
170
330
1F
100
AcDbEntity
  8
作業ﾚｲﾔ1
  6
Continuous
 62
     7
370
    18
100
AcDbLine
 10
98.36000000000001
 20
297.1799999999996
 30
0.0
 11
98.36000000000001
 21
297.5799999999996
 31
0.0
  0
LINE
  5
171
330
1F
100
AcDbEntity
  8
作業ﾚｲﾔ1
  6
Continuous
 62
     7
370
    18
100
AcDbLine
 10
98.36000000000001
 20
297.9799999999996
 30
0.0
 11
98.36000000000001
 21
299.6299999999995
 31
0.0
  0
LINE
  5
172
330
1F
100
AcDbEntity
  8
作業ﾚｲﾔ1
  6
Continuous
 62
     7
370
    18
100
AcDbLine
 10
98.06000000000046
 20
299.63
 30
0.0
 11
98.65999999999957
 21
299.63
 31
0.0
  0
TEXT
  5
173
330
1F
100
AcDbEntity
  8
作業ﾚｲﾔ1
  6
Continuous
 62
     7
370
    13
100
AcDbText
 10
151.2324909536699
 20
284.4058392204848
 30
0.0
 40
1.915708812260537
  1
g
  7
ＭＳ ゴシック
 72
     1
 11
151.8553298822528
 21
285.363693626615
 31
0.0
100
AcDbText
 73
     2
  0
LINE
  5
174
330
1F
100
AcDbEntity
  8
作業ﾚｲﾔ1
  6
Continuous
 62
     7
370
    18
100
AcDbLine
 10
422.06
 20
288.67
 30
0.0
 11
422.06
 21
287.67
 31
0.0
  0
TEXT
  5
175
330
1F
100
AcDbEntity
  8
作業ﾚｲﾔ1
  6
Continuous
 62
     7
370
    13
100
AcDbText
 10
457.3812884783982
 20
284.7085869160985
 30
0.0
 40
1.915708812260537
  1
g
  7
ＭＳ ゴシック
 72
     1
 11
458.0041274069811
 21
285.6664413222287
 31
0.0
100
AcDbText
 73
     2
  0
LINE
  5
176
330
1F
100
AcDbEntity
  8
作業ﾚｲﾔ1
  6
Continuous
 62
     7
370
    18
100
AcDbLine
 10
493.3
 20
287.53
 30
0.0
 11
493.3
 21
286.5299999999999
 31
0.0
  0
LINE
  5
177
330
1F
100
AcDbEntity
  8
作業ﾚｲﾔ1
  6
Continuous
 62
     7
370
    18
100
AcDbLine
 10
491.78
 20
288.68
 30
0.0
 11
491.78
 21
286.5299999999999
 31
0.0
  0
TEXT
  5
178
330
1F
100
AcDbEntity
  8
作業ﾚｲﾔ1
  6
Continuous
 62
     7
370
    13
100
AcDbText
 10
85.47421247249696
 20
274.1455253256894
 30
0.0
 40
1.915708812260537
  1
As
  7
ＭＳ ゴシック
 72
     1
 11
86.71989032966275
 21
275.1033797318197
 31
0.0
100
AcDbText
 73
     2
  0
LINE
  5
179
330
1F
100
AcDbEntity
  8
作業ﾚｲﾔ7
  6
Continuous
 62
     7
370
    50
100
AcDbLine
 10
801.0
 20
554.0
 30
0.0
 11
0.0
 21
554.0
 31
0.0
  0
LINE
  5
17A
330
1F
100
AcDbEntity
  8
作業ﾚｲﾔ7
  6
Continuous
 62
     7
370
    50
100
AcDbLine
 10
0.0
 20
554.0
 30
0.0
 11
0.0
 21
0.0
 31
0.0
  0
LINE
  5
17B
330
1F
100
AcDbEntity
  8
作業ﾚｲﾔ7
  6
Continuous
 62
     7
370
    50
100
AcDbLine
 10
0.0
 20
0.0
 30
0.0
 11
801.0
 21
0.0000000000000036
 31
0.0
  0
LINE
  5
17C
330
1F
100
AcDbEntity
  8
作業ﾚｲﾔ7
  6
Continuous
 62
     7
370
    50
100
AcDbLine
 10
801.0
 20
0.0
 30
0.0
 11
801.0
 21
554.0
 31
0.0
  0
LINE
  5
17D
330
1F
100
AcDbEntity
  8
作業ﾚｲﾔ7
  6
Continuous
 62
     7
370
    35
100
AcDbLine
 10
711.0
 20
60.00000000000489
 30
0.0
 11
711.0
 21
0.0
 31
0.0
  0
LINE
  5
17E
330
1F
100
AcDbEntity
  8
作業ﾚｲﾔ7
  6
Continuous
 62
     7
370
    35
100
AcDbLine
 10
801.0
 20
60.00000000000489
 30
0.0
 11
711.0
 21
60.00000000000489
 31
0.0
  0
TEXT
  5
17F
330
1F
100
AcDbEntity
  8
作業ﾚｲﾔ7
  6
Continuous
 62
     7
370
    18
100
AcDbText
 10
731.5051540968827
 20
9.079586208567154
 30
0.0
 40
2.084291187739464
  1
〒238-0004　横須賀市小川町28番地1-202
  7
ＭＳ ゴシック
 72
     1
 11
756.5781580059157
 21
10.12173180243689
 31
0.0
100
AcDbText
 73
     2
  0
TEXT
  5
180
330
1F
100
AcDbEntity
  8
作業ﾚｲﾔ7
  6
Continuous
 62
     7
370
    18
100
AcDbText
 10
726.7741580059155
 20
5.196726556010341
 30
0.0
 40
2.513409961685824
  1
有限会社
  7
ＭＳ ゴシック
 11
726.7741580059155
 21
4.737425007584854
 31
0.0
100
AcDbText
 73
     1
  0
TEXT
  5
181
330
1F
100
AcDbEntity
  8
作業ﾚｲﾔ7
  6
Continuous
 62
     7
370
    18
100
AcDbText
 10
753.6955710338856
 20
5.021069593821335
 30
0.0
 40
2.513409961685824
  1
オーヤマプランニング
  7
ＭＳ ゴシック
 72
     2
 11
786.3821580059158
 21
4.561768045395848
 31
0.0
100
AcDbText
 73
     1
  0
TEXT
  5
182
330
1F
100
AcDbEntity
  8
作業ﾚｲﾔ7
  6
Continuous
 62
     7
370
    18
100
AcDbText
 10
729.1533143025546
 20
1.557627486050646
 30
0.0
 40
1.96168582375479
  1
ＴＥＬ　050-3629-9812　　FAX　050-3629-9816
  7
ＭＳ ゴシック
 72
     1
 11
756.5781580059165
 21
2.538470397928041
 31
0.0
100
AcDbText
 73
     2
  0
LINE
  5
183
330
1F
100
AcDbEntity
  8
作業ﾚｲﾔ7
  6
Continuous
 62
     7
370
    35
100
AcDbLine
 10
801.0
 20
13.33333333333814
 30
0.0
 11
711.0
 21
13.33333333333814
 31
0.0
  0
LINE
  5
184
330
1F
100
AcDbEntity
  8
作業ﾚｲﾔ7
  6
Continuous
 62
     7
370
    35
100
AcDbLine
 10
801.0
 20
50.00000000000483
 30
0.0
 11
711.0
 21
50.00000000000483
 31
0.0
  0
LINE
  5
185
330
1F
100
AcDbEntity
  8
作業ﾚｲﾔ7
  6
Continuous
 62
     7
370
    35
100
AcDbLine
 10
801.0
 20
40.00000000000483
 30
0.0
 11
711.0
 21
40.00000000000483
 31
0.0
  0
LINE
  5
186
330
1F
100
AcDbEntity
  8
作業ﾚｲﾔ7
  6
Continuous
 62
     7
370
    35
100
AcDbLine
 10
801.0
 20
31.66666666667151
 30
0.0
 11
711.0
 21
31.66666666667151
 31
0.0
  0
LINE
  5
187
330
1F
100
AcDbEntity
  8
作業ﾚｲﾔ7
  6
Continuous
 62
     7
370
    35
100
AcDbLine
 10
801.0
 20
23.33333333333814
 30
0.0
 11
711.0
 21
23.33333333333814
 31
0.0
  0
LINE
  5
188
330
1F
100
AcDbEntity
  8
作業ﾚｲﾔ7
  6
Continuous
 62
     7
370
    35
100
AcDbLine
 10
731.0
 20
60.00000000000489
 30
0.0
 11
731.0
 21
13.33333333333814
 31
0.0
  0
LINE
  5
189
330
1F
100
AcDbEntity
  8
作業ﾚｲﾔ7
  6
Continuous
 62
     7
370
    35
100
AcDbLine
 10
751.0
 20
31.66666666667151
 30
0.0
 11
751.0
 21
13.33333333333814
 31
0.0
  0
LINE
  5
18A
330
1F
100
AcDbEntity
  8
作業ﾚｲﾔ7
  6
Continuous
 62
     7
370
    35
100
AcDbLine
 10
771.0
 20
31.66666666667151
 30
0.0
 11
771.0
 21
13.33333333333814
 31
0.0
  0
TEXT
  5
18B
330
1F
100
AcDbEntity
  8
作業ﾚｲﾔ7
  6
Continuous
 62
     7
370
    18
100
AcDbText
 10
712.3538499551668
 20
53.80717496537839
 30
0.0
 40
2.681992337164751
  1
業　務　名
  7
ＭＳ ゴシック
 72
     1
 11
721.0735949553273
 21
55.14817113396077
 31
0.0
100
AcDbText
 73
     2
  0
TEXT
  5
18C
330
1F
100
AcDbEntity
  8
作業ﾚｲﾔ7
  6
Continuous
 62
     7
370
    18
100
AcDbText
 10
712.3538499551667
 20
43.80717496537839
 30
0.0
 40
2.681992337164751
  1
所　　　在
  7
ＭＳ ゴシック
 72
     1
 11
721.0735949553272
 21
45.14817113396077
 31
0.0
100
AcDbText
 73
     2
  0
TEXT
  5
18D
330
1F
100
AcDbEntity
  8
作業ﾚｲﾔ7
  6
Continuous
 62
     7
370
    18
100
AcDbText
 10
712.3867874131145
 20
34.88789912003578
 30
0.0
 40
2.681992337164751
  1
図　面　名
  7
ＭＳ ゴシック
 72
     1
 11
721.106532413275
 21
36.22889528861815
 31
0.0
100
AcDbText
 73
     2
  0
TEXT
  5
18E
330
1F
100
AcDbEntity
  8
作業ﾚｲﾔ7
  6
Continuous
 62
     7
370
    18
100
AcDbText
 10
717.6186344132108
 20
26.55456578670246
 30
0.0
 40
2.681992337164751
  1
縮尺
  7
ＭＳ ゴシック
 72
     1
 11
721.106532413275
 21
27.89556195528484
 31
0.0
100
AcDbText
 73
     2
  0
TEXT
  5
18F
330
1F
100
AcDbEntity
  8
作業ﾚｲﾔ7
  6
Continuous
 62
     7
370
    18
100
AcDbText
 10
715.8417479552309
 20
17.1405082987117
 30
0.0
 40
2.681992337164751
  1
作成者
  7
ＭＳ ゴシック
 72
     1
 11
721.0735949553272
 21
18.48150446729408
 31
0.0
100
AcDbText
 73
     2
  0
TEXT
  5
190
330
1F
100
AcDbEntity
  8
作業ﾚｲﾔ7
  6
Continuous
 62
     7
370
    18
100
AcDbText
 10
754.0977989551988
 20
19.62550454337211
 30
0.0
 40
2.681992337164751
  1
資格登録
  7
ＭＳ ゴシック
 72
     1
 11
761.0735949553272
 21
20.96650071195448
 31
0.0
100
AcDbText
 73
     2
  0
TEXT
  5
191
330
1F
100
AcDbEntity
  8
作業ﾚｲﾔ7
  6
Continuous
 62
     7
370
    18
100
AcDbText
 10
757.585696955263
 20
14.61901093527306
 30
0.0
 40
2.681992337164751
  1
番号
  7
ＭＳ ゴシック
 72
     1
 11
761.0735949553272
 21
15.96000710385543
 31
0.0
100
AcDbText
 73
     2
  0
TEXT
  5
192
330
1F
100
AcDbEntity
  8
作業ﾚｲﾔ7
  6
Continuous
 62
     7
370
    18
100
AcDbText
 10
732.3538499551672
 20
17.14050829871176
 30
0.0
 40
2.681992337164751
  1
小野口翔也
  7
ＭＳ ゴシック
 72
     1
 11
741.0735949553277
 21
18.48150446729413
 31
0.0
100
AcDbText
 73
     2
  0
TEXT
  5
193
330
1F
100
AcDbEntity
  8
作業ﾚｲﾔ7
  6
Continuous
 62
     7
370
    18
100
AcDbText
 10
779.8961784998877
 20
15.33634099617339
 30
0.0
 40
2.681992337164751
  1
H21-240
  7
ＭＳ ゴシック
 72
     1
 11
786.0
 21
18.01833333333814
 31
0.0
100
AcDbText
 73
     3
  0
TEXT
  5
194
330
1F
100
AcDbEntity
  8
作業ﾚｲﾔ7
  6
Continuous
 62
     7
370
    18
100
AcDbText
 10
752.2802549998395
 20
26.25000383142245
 30
0.0
 40
2.681992337164751
  1
作成年月日
  7
ＭＳ ゴシック
 72
     1
 11
761.0
 21
27.59100000000483
 31
0.0
100
AcDbText
 73
     2
  0
TEXT
  5
195
330
1F
100
AcDbEntity
  8
作業ﾚｲﾔ7
  6
Continuous
 62
     7
370
    18
100
AcDbText
 10
773.75
 20
18.82694169293851
 30
0.0
 40
2.681992337164751
  1
測量士
  7
ＭＳ ゴシック
 11
773.75
 21
18.33683333333814
 31
0.0
100
AcDbText
 73
     1
  0
TEXT
  5
196
330
1F
100
AcDbEntity
  8
作業ﾚｲﾔ7
  6
Continuous
 62
     7
370
    18
100
AcDbText
 10
742.4645811538574
 20
34.88789912003583
 30
0.0
 40
2.681992337164751
  1
横断図（BNO.0～BNO.2）4/6
  7
ＭＳ ゴシック
 72
     1
 11
764.2639436542586
 21
36.22889528861821
 31
0.0
100
AcDbText
 73
     2
  0
TEXT
  5
197
330
1F
100
AcDbEntity
  8
作業ﾚｲﾔ7
  6
Continuous
 62
     7
370
    18
100
AcDbText
 10
736.6401274999198
 20
26.25000383142246
 30
0.0
 40
2.681992337164751
  1
1/100
  7
ＭＳ ゴシック
 72
     1
 11
741.0
 21
27.59100000000483
 31
0.0
100
AcDbText
 73
     2
  0
LINE
  5
198
330
1F
100
AcDbEntity
  8
作業ﾚｲﾔ1
  6
Continuous
 62
     7
370
    18
100
AcDbLine
 10
512.51000012
 20
285.77
 30
0.0
 11
512.51000012
 21
283.9700000001795
 31
0.0
  0
LINE
  5
199
330
1F
100
AcDbEntity
  8
作業ﾚｲﾔ1
  6
Continuous
 62
     7
370
    18
100
AcDbLine
 10
509.77
 20
285.77
 30
0.0
 11
509.77
 21
283.9700000001795
 31
0.0
  0
LINE
  5
19A
330
1F
100
AcDbEntity
  8
作業ﾚｲﾔ1
  6
Continuous
 62
     7
370
    18
100
AcDbLine
 10
512.51000012
 20
286.12
 30
0.0
 11
512.51000012
 21
285.77
 31
0.0
  0
LINE
  5
19B
330
1F
100
AcDbEntity
  8
作業ﾚｲﾔ1
  6
Continuous
 62
     7
370
    18
100
AcDbLine
 10
509.77
 20
286.12
 30
0.0
 11
512.51000012
 21
286.12
 31
0.0
  0
ARC
  5
19C
330
1F
100
AcDbEntity
  8
作業ﾚｲﾔ1
  6
Continuous
 62
     7
370
    13
100
AcDbCircle
 10
510.7053439385035
 20
284.4838239768446
 30
0.0
 40
0.5139913924564881
100
AcDbArc
 50
181.5411756947568
 51
271.4624118785595
  0
ARC
  5
19D
330
1F
100
AcDbEntity
  8
作業ﾚｲﾔ1
  6
Continuous
 62
     7
370
    13
100
AcDbCircle
 10
511.57465618152
 20
284.4838239768292
 30
0.0
 40
0.5139913924320557
100
AcDbArc
 50
268.537588160936
 51
358.4588243090301
  0
LINE
  5
19E
330
1F
100
AcDbEntity
  8
作業ﾚｲﾔ1
  6
Continuous
 62
     7
370
    18
100
AcDbLine
 10
509.77
 20
285.77
 30
0.0
 11
509.77
 21
286.12
 31
0.0
  0
LINE
  5
19F
330
1F
100
AcDbEntity
  8
作業ﾚｲﾔ1
  6
Continuous
 62
     7
370
    18
100
AcDbLine
 10
510.19153848
 20
285.77
 30
0.0
 11
510.19153848
 21
284.4700000001602
 31
0.0
  0
LINE
  5
1A0
330
1F
100
AcDbEntity
  8
作業ﾚｲﾔ1
  6
Continuous
 62
     7
370
    18
100
AcDbLine
 10
512.08846164
 20
284.4700000000192
 30
0.0
 11
512.08846164
 21
285.77
 31
0.0
  0
LINE
  5
1A1
330
1F
100
AcDbEntity
  8
作業ﾚｲﾔ1
  6
Continuous
 62
     7
370
    18
100
AcDbLine
 10
510.7184615801891
 20
283.9700000001795
 30
0.0
 11
511.5615385401891
 21
283.9700000001795
 31
0.0
  0
LINE
  5
1A2
330
1F
100
AcDbEntity
  8
作業ﾚｲﾔ1
  6
Continuous
 62
     7
370
    18
100
AcDbLine
 10
509.77
 20
285.77
 30
0.0
 11
512.51000012
 21
285.77
 31
0.0
  0
TEXT
  5
1A3
330
1F
100
AcDbEntity
  8
作業ﾚｲﾔ1
  6
Continuous
 62
     7
370
    13
100
AcDbText
 10
508.7578918032393
 20
281.5394192952842
 30
0.0
 40
1.915708812260537
  1
U180
  7
ＭＳ ゴシック
 72
     1
 11
511.2492475175709
 21
282.4972737014144
 31
0.0
100
AcDbText
 73
     2
  0
LINE
  5
1A4
330
1F
100
AcDbEntity
  8
作業ﾚｲﾔ1
  6
USER_6
 62
     7
370
    18
100
AcDbLine
 10
501.31
 20
286.9132456140351
 30
0.0
 11
501.31
 21
276.5153623188406
 31
0.0
  0
LINE
  5
1A5
330
1F
100
AcDbEntity
  8
作業ﾚｲﾔ1
  6
USER_6
 62
     7
370
    18
100
AcDbLine
 10
505.81
 20
286.5153623188406
 30
0.0
 11
505.81
 21
276.5153623188406
 31
0.0
  0
LINE
  5
1A6
330
1F
100
AcDbEntity
  8
作業ﾚｲﾔ1
  6
USER_6
 62
     7
370
    18
100
AcDbLine
 10
521.98
 20
286.342090443686
 30
0.0
 11
521.98
 21
276.4459875813128
 31
0.0
  0
LINE
  5
1A7
330
1F
100
AcDbEntity
  8
作業ﾚｲﾔ1
  6
USER_6
 62
     7
370
    18
100
AcDbLine
 10
526.48
 20
286.4459875813128
 30
0.0
 11
526.48
 21
276.4459875813128
 31
0.0
  0
LINE
  5
1A8
330
1F
100
AcDbEntity
  8
作業ﾚｲﾔ1
  6
USER_6
 62
     7
370
    18
100
AcDbLine
 10
556.2499999999999
 20
286.5252099349497
 30
0.0
 11
556.2499999999999
 21
276.5252099349497
 31
0.0
  0
LINE
  5
1A9
330
1F
100
AcDbEntity
  8
作業ﾚｲﾔ1
  6
USER_6
 62
     7
370
    18
100
AcDbLine
 10
559.8499999999999
 20
286.5394158674803
 30
0.0
 11
559.8499999999999
 21
276.5252099349497
 31
0.0
  0
LINE
  5
1AA
330
1F
100
AcDbEntity
  8
作業ﾚｲﾔ1
  6
USER_6
 62
     7
370
    18
100
AcDbLine
 10
590.66
 20
286.7052099349497
 30
0.0
 11
590.66
 21
276.7052099349497
 31
0.0
  0
LINE
  5
1AB
330
1F
100
AcDbEntity
  8
作業ﾚｲﾔ1
  6
USER_6
 62
     7
370
    18
100
AcDbLine
 10
594.26
 20
286.7194158674803
 30
0.0
 11
594.26
 21
276.7052099349497
 31
0.0
  0
LINE
  5
1AC
330
1F
100
AcDbEntity
  8
作業ﾚｲﾔ1
  6
USER_6
 62
     7
370
    18
100
AcDbLine
 10
607.9699999999999
 20
286.6952099349497
 30
0.0
 11
607.9699999999999
 21
276.6952099349497
 31
0.0
  0
LINE
  5
1AD
330
1F
100
AcDbEntity
  8
作業ﾚｲﾔ1
  6
USER_6
 62
     7
370
    18
100
AcDbLine
 10
611.5699999999999
 20
286.6052631578947
 30
0.0
 11
611.5699999999999
 21
276.6952099349497
 31
0.0
  0
LINE
  5
1AE
330
1F
100
AcDbEntity
  8
現況線
  6
USER_6
 62
     7
370
    18
100
AcDbLine
 10
611.67
 20
286.6
 30
0.0
 11
611.67
 21
284.3
 31
0.0
  0
LINE
  5
1AF
330
1F
100
AcDbEntity
  8
現況線
  6
USER_6
 62
     7
370
    18
100
AcDbLine
 10
615.71
 20
286.65
 30
0.0
 11
615.71
 21
284.35
 31
0.0
  0
LINE
  5
1B0
330
1F
100
AcDbEntity
  8
作業ﾚｲﾔ1
  6
Continuous
 62
     7
370
    18
100
AcDbLine
 10
618.02
 20
287.92
 30
0.0
 11
618.02
 21
286.75
 31
0.0
  0
LINE
  5
1B1
330
1F
100
AcDbEntity
  8
作業ﾚｲﾔ1
  6
Continuous
 62
     7
370
    18
100
AcDbLine
 10
659.27
 20
275.77
 30
0.0
 11
659.27
 21
274.7699999999999
 31
0.0
  0
LINE
  5
1B2
330
1F
100
AcDbEntity
  8
作業ﾚｲﾔ1
  6
Continuous
 62
     7
370
    18
100
AcDbLine
 10
661.27
 20
275.79
 30
0.0
 11
661.27
 21
274.7699999999999
 31
0.0
  0
LINE
  5
1B3
330
1F
100
AcDbEntity
  8
作業ﾚｲﾔ1
  6
Continuous
 62
     7
370
    18
100
AcDbLine
 10
660.27
 20
276.39
 30
0.0
 11
660.27
 21
278.14
 31
0.0
  0
LINE
  5
1B4
330
1F
100
AcDbEntity
  8
作業ﾚｲﾔ1
  6
Continuous
 62
     7
370
    18
100
AcDbLine
 10
660.27
 20
278.54
 30
0.0
 11
660.27
 21
278.9399999999999
 31
0.0
  0
LINE
  5
1B5
330
1F
100
AcDbEntity
  8
作業ﾚｲﾔ1
  6
Continuous
 62
     7
370
    18
100
AcDbLine
 10
660.27
 20
279.3399999999999
 30
0.0
 11
660.27
 21
281.3399999999999
 31
0.0
  0
LINE
  5
1B6
330
1F
100
AcDbEntity
  8
作業ﾚｲﾔ1
  6
Continuous
 62
     7
370
    18
100
AcDbLine
 10
660.27
 20
281.7399999999999
 30
0.0
 11
660.27
 21
282.1399999999999
 31
0.0
  0
LINE
  5
1B7
330
1F
100
AcDbEntity
  8
作業ﾚｲﾔ1
  6
Continuous
 62
     7
370
    18
100
AcDbLine
 10
660.27
 20
282.5399999999998
 30
0.0
 11
660.27
 21
284.5399999999998
 31
0.0
  0
LINE
  5
1B8
330
1F
100
AcDbEntity
  8
作業ﾚｲﾔ1
  6
Continuous
 62
     7
370
    18
100
AcDbLine
 10
660.27
 20
284.9399999999998
 30
0.0
 11
660.27
 21
285.3399999999998
 31
0.0
  0
LINE
  5
1B9
330
1F
100
AcDbEntity
  8
作業ﾚｲﾔ1
  6
Continuous
 62
     7
370
    18
100
AcDbLine
 10
660.27
 20
285.7399999999998
 30
0.0
 11
660.27
 21
287.7399999999998
 31
0.0
  0
LINE
  5
1BA
330
1F
100
AcDbEntity
  8
作業ﾚｲﾔ1
  6
Continuous
 62
     7
370
    18
100
AcDbLine
 10
660.27
 20
288.1399999999998
 30
0.0
 11
660.27
 21
288.5399999999997
 31
0.0
  0
LINE
  5
1BB
330
1F
100
AcDbEntity
  8
作業ﾚｲﾔ1
  6
Continuous
 62
     7
370
    18
100
AcDbLine
 10
660.27
 20
288.9399999999997
 30
0.0
 11
660.27
 21
290.9399999999997
 31
0.0
  0
LINE
  5
1BC
330
1F
100
AcDbEntity
  8
作業ﾚｲﾔ1
  6
Continuous
 62
     7
370
    18
100
AcDbLine
 10
660.27
 20
291.3399999999997
 30
0.0
 11
660.27
 21
291.7399999999997
 31
0.0
  0
LINE
  5
1BD
330
1F
100
AcDbEntity
  8
作業ﾚｲﾔ1
  6
Continuous
 62
     7
370
    18
100
AcDbLine
 10
660.27
 20
292.1399999999996
 30
0.0
 11
660.27
 21
294.1399999999996
 31
0.0
  0
LINE
  5
1BE
330
1F
100
AcDbEntity
  8
作業ﾚｲﾔ1
  6
Continuous
 62
     7
370
    18
100
AcDbLine
 10
660.27
 20
294.5399999999996
 30
0.0
 11
660.27
 21
294.9399999999996
 31
0.0
  0
LINE
  5
1BF
330
1F
100
AcDbEntity
  8
作業ﾚｲﾔ1
  6
Continuous
 62
     7
370
    18
100
AcDbLine
 10
660.27
 20
295.3399999999996
 30
0.0
 11
660.27
 21
297.0899999999996
 31
0.0
  0
LINE
  5
1C0
330
1F
100
AcDbEntity
  8
作業ﾚｲﾔ1
  6
Continuous
 62
     7
370
    18
100
AcDbLine
 10
659.9700000000005
 20
297.09
 30
0.0
 11
660.5699999999995
 21
297.09
 31
0.0
  0
TEXT
  5
1C1
330
1F
100
AcDbEntity
  8
作業ﾚｲﾔ1
  6
Continuous
 62
     7
370
    13
100
AcDbText
 10
637.6346846547319
 20
276.2395995116564
 30
0.0
 40
1.915708812260537
  1
g
  7
ＭＳ ゴシック
 72
     1
 11
638.2575235833148
 21
277.1974539177867
 31
0.0
100
AcDbText
 73
     2
  0
TEXT
  5
1C2
330
1F
100
AcDbEntity
  8
作業ﾚｲﾔ1
  6
Continuous
 62
     7
370
    13
100
AcDbText
 10
693.8481873656752
 20
272.1648844784645
 30
0.0
 40
1.915708812260537
  1
As
  7
ＭＳ ゴシック
 72
     1
 11
695.093865222841
 21
273.1227388845948
 31
0.0
100
AcDbText
 73
     2
  0
TEXT
  5
1C3
330
1F
100
AcDbEntity
  8
作業ﾚｲﾔ1
  6
Continuous
 62
     7
370
    13
100
AcDbText
 10
540.394620676493
 20
282.5658499425132
 30
0.0
 40
1.915708812260537
  1
CO
  7
ＭＳ ゴシック
 72
     1
 11
541.6402985336588
 21
283.5237043486434
 31
0.0
100
AcDbText
 73
     2
  0
TEXT
  5
1C4
330
1F
100
AcDbEntity
  8
作業ﾚｲﾔ1
  6
Continuous
 62
     7
370
    13
100
AcDbText
 10
600.6484895716715
 20
283.3586640069234
 30
0.0
 40
1.915708812260537
  1
CO
  7
ＭＳ ゴシック
 72
     1
 11
601.8941674288372
 21
284.3165184130537
 31
0.0
100
AcDbText
 73
     2
  0
LINE
  5
1C5
330
1F
100
AcDbEntity
  8
測点名
  6
Continuous
 62
     7
370
    18
100
AcDbLine
 10
69.13
 20
350.0
 30
0.0
 11
87.63
 21
350.0
 31
0.0
  0
LINE
  5
1C6
330
1F
100
AcDbEntity
  8
測点名
  6
Continuous
 62
     7
370
    18
100
AcDbLine
 10
69.13
 20
351.0
 30
0.0
 11
87.63
 21
351.0
 31
0.0
  0
TEXT
  5
1C7
330
1F
100
AcDbEntity
  8
測点名
  6
Continuous
 62
     7
370
    13
100
AcDbText
 10
70.90593285700528
 20
352.7051547994291
 30
0.0
 40
3.831417624521073
  1
A0RB1L
  7
ＭＳ ゴシック
 72
     1
 11
78.38
 21
352.005
 31
0.0
100
AcDbText
 73
     1
  0
LINE
  5
1C8
330
1F
100
AcDbEntity
  8
中心線
  6
chain
 62
     7
370
    18
100
AcDbLine
 10
78.38
 20
257.7
 30
0.0
 11
78.38
 21
297.7
 31
0.0
  0
TEXT
  5
1C9
330
1F
100
AcDbEntity
  8
ＧＨ
  6
Continuous
 62
     7
370
    13
100
AcDbText
 10
78.38
 20
342.3525773997146
 30
0.0
 40
1.915708812260537
  1
GH=2.77
  7
ＭＳ ゴシック
 11
78.38
 21
342.0025
 31
0.0
100
AcDbText
 73
     1
  0
TEXT
  5
1CA
330
1F
100
AcDbEntity
  8
ＰＨ
  6
Continuous
 62
     7
370
    13
100
AcDbText
 10
78.38
 20
345.3525773997146
 30
0.0
 40
1.915708812260537
  1
PH=2.77
  7
ＭＳ ゴシック
 11
78.38
 21
345.0025
 31
0.0
100
AcDbText
 73
     1
  0
LINE
  5
1CB
330
1F
100
AcDbEntity
  8
測点名
  6
Continuous
 62
     7
370
    18
100
AcDbLine
 10
690.75
 20
350.0
 30
0.0
 11
709.25
 21
350.0
 31
0.0
  0
LINE
  5
1CC
330
1F
100
AcDbEntity
  8
測点名
  6
Continuous
 62
     7
370
    18
100
AcDbLine
 10
690.75
 20
351.0
 30
0.0
 11
709.25
 21
351.0
 31
0.0
  0
TEXT
  5
1CD
330
1F
100
AcDbEntity
  8
測点名
  6
Continuous
 62
     7
370
    13
100
AcDbText
 10
692.5259328570053
 20
352.7051547994291
 30
0.0
 40
3.831417624521073
  1
BNO.1R
  7
ＭＳ ゴシック
 72
     1
 11
700.0
 21
352.005
 31
0.0
100
AcDbText
 73
     1
  0
LINE
  5
1CE
330
1F
100
AcDbEntity
  8
中心線
  6
chain
 62
     7
370
    18
100
AcDbLine
 10
700.0
 20
255.41
 30
0.0
 11
700.0
 21
295.41
 31
0.0
  0
TEXT
  5
1CF
330
1F
100
AcDbEntity
  8
ＧＨ
  6
Continuous
 62
     7
370
    13
100
AcDbText
 10
700.0
 20
342.3525773997146
 30
0.0
 40
1.915708812260537
  1
GH=2.54
  7
ＭＳ ゴシック
 11
700.0
 21
342.0025
 31
0.0
100
AcDbText
 73
     1
  0
TEXT
  5
1D0
330
1F
100
AcDbEntity
  8
ＰＨ
  6
Continuous
 62
     7
370
    13
100
AcDbText
 10
700.0
 20
345.3525773997146
 30
0.0
 40
1.915708812260537
  1
PH=2.54
  7
ＭＳ ゴシック
 11
700.0
 21
345.0025
 31
0.0
100
AcDbText
 73
     1
  0
TEXT
  5
1D1
330
1F
100
AcDbEntity
  8
作業ﾚｲﾔ1
  6
Continuous
 62
     7
370
    13
100
AcDbText
 10
299.0240585467855
 20
436.3893003979675
 30
0.0
 40
1.915708812260537
  1
プール溝
  7
ＭＳ ゴシック
 72
     1
 11
304.0067699754486
 21
437.3471548040978
 31
0.0
100
AcDbText
 73
     2
  0
LINE
  5
1D2
330
1F
100
AcDbEntity
  8
作業ﾚｲﾔ1
  6
Continuous
 62
     7
370
    13
100
AcDbLine
 10
220.0896135080476
 20
428.7775255366838
 30
0.0
 11
219.3408346803047
 21
435.1302309149843
 31
0.0
  0
LINE
  5
1D3
330
1F
100
AcDbEntity
  8
作業ﾚｲﾔ1
  6
Continuous
 62
     7
370
    13
100
AcDbLine
 10
219.3408346803047
 20
435.1302309149843
 30
0.0
 11
220.0715120290678
 21
433.202509303339
 31
0.0
  0
LINE
  5
1D4
330
1F
100
AcDbEntity
  8
作業ﾚｲﾔ1
  6
Continuous
 62
     7
370
    18
100
AcDbLine
 10
504.68
 20
436.6
 30
0.0
 11
504.68
 21
436.25
 31
0.0
  0
TEXT
  5
1D5
330
1F
100
AcDbEntity
  8
作業ﾚｲﾔ1
  6
Continuous
 62
     7
370
    13
100
AcDbText
 10
515.7949702637821
 20
433.6322833479751
 30
0.0
 40
1.915708812260537
  1
Co
  7
ＭＳ ゴシック
 72
     1
 11
517.0406481209479
 21
434.5901377541053
 31
0.0
100
AcDbText
 73
     2
  0
LINE
  5
1D6
330
1F
100
AcDbEntity
  8
作業ﾚｲﾔ1
  6
Continuous
 62
     7
370
    18
100
AcDbLine
 10
147.5
 20
437.42
 30
0.0
 11
147.5
 21
436.42
 31
0.0
  0
LINE
  5
1D7
330
1F
100
AcDbEntity
  8
作業ﾚｲﾔ1
  6
Continuous
 62
     7
370
    18
100
AcDbLine
 10
145.3
 20
438.12
 30
0.0
 11
145.3
 21
436.42
 31
0.0
  0
LINE
  5
1D8
330
1F
100
AcDbEntity
  8
作業ﾚｲﾔ1
  6
Continuous
 62
     7
370
    18
100
AcDbLine
 10
104.09
 20
438.67
 30
0.0
 11
104.09
 21
437.67
 31
0.0
  0
TEXT
  5
1D9
330
1F
100
AcDbEntity
  8
作業ﾚｲﾔ1
  6
Continuous
 62
     7
370
    13
100
AcDbText
 10
91.98703459929334
 20
424.2429554702502
 30
0.0
 40
1.915708812260537
  1
g
  7
ＭＳ ゴシック
 72
     1
 11
92.60987352787623
 21
425.2008098763804
 31
0.0
100
AcDbText
 73
     2
  0
TEXT
  5
1DA
330
1F
100
AcDbEntity
  8
作業ﾚｲﾔ1
  6
Continuous
 62
     7
370
    13
100
AcDbText
 10
123.053224628628
 20
435.2081376151508
 30
0.0
 40
1.915708812260537
  1
Co
  7
ＭＳ ゴシック
 72
     1
 11
124.2989024857938
 21
436.1659920212811
 31
0.0
100
AcDbText
 73
     2
  0
TEXT
  5
1DB
330
1F
100
AcDbEntity
  8
作業ﾚｲﾔ1
  6
Continuous
 62
     7
370
    13
100
AcDbText
 10
68.6056149999538
 20
424.3246715401061
 30
0.0
 40
1.915708812260537
  1
As
  7
ＭＳ ゴシック
 72
     1
 11
69.85129285711959
 21
425.2825259462364
 31
0.0
100
AcDbText
 73
     2
  0
LINE
  5
1DC
330
1F
100
AcDbEntity
  8
作業ﾚｲﾔ1
  6
Continuous
 62
     7
370
    18
100
AcDbLine
 10
82.73000000000002
 20
429.1
 30
0.0
 11
82.73000000000002
 21
430.75
 31
0.0
  0
LINE
  5
1DD
330
1F
100
AcDbEntity
  8
作業ﾚｲﾔ1
  6
Continuous
 62
     7
370
    18
100
AcDbLine
 10
82.73000000000002
 20
431.15
 30
0.0
 11
82.73000000000002
 21
431.55
 31
0.0
  0
LINE
  5
1DE
330
1F
100
AcDbEntity
  8
作業ﾚｲﾔ1
  6
Continuous
 62
     7
370
    18
100
AcDbLine
 10
82.73000000000002
 20
431.9499999999999
 30
0.0
 11
82.73000000000002
 21
433.9499999999999
 31
0.0
  0
LINE
  5
1DF
330
1F
100
AcDbEntity
  8
作業ﾚｲﾔ1
  6
Continuous
 62
     7
370
    18
100
AcDbLine
 10
82.73000000000002
 20
434.3499999999999
 30
0.0
 11
82.73000000000002
 21
434.7499999999999
 31
0.0
  0
LINE
  5
1E0
330
1F
100
AcDbEntity
  8
作業ﾚｲﾔ1
  6
Continuous
 62
     7
370
    18
100
AcDbLine
 10
82.73000000000002
 20
435.1499999999999
 30
0.0
 11
82.73000000000002
 21
437.1499999999999
 31
0.0
  0
LINE
  5
1E1
330
1F
100
AcDbEntity
  8
作業ﾚｲﾔ1
  6
Continuous
 62
     7
370
    18
100
AcDbLine
 10
82.73000000000002
 20
437.5499999999998
 30
0.0
 11
82.73000000000002
 21
437.9499999999998
 31
0.0
  0
LINE
  5
1E2
330
1F
100
AcDbEntity
  8
作業ﾚｲﾔ1
  6
Continuous
 62
     7
370
    18
100
AcDbLine
 10
82.73000000000002
 20
438.3499999999998
 30
0.0
 11
82.73000000000002
 21
440.3499999999998
 31
0.0
  0
LINE
  5
1E3
330
1F
100
AcDbEntity
  8
作業ﾚｲﾔ1
  6
Continuous
 62
     7
370
    18
100
AcDbLine
 10
82.73000000000002
 20
440.7499999999998
 30
0.0
 11
82.73000000000002
 21
441.1499999999997
 31
0.0
  0
LINE
  5
1E4
330
1F
100
AcDbEntity
  8
作業ﾚｲﾔ1
  6
Continuous
 62
     7
370
    18
100
AcDbLine
 10
82.73000000000002
 20
441.5499999999997
 30
0.0
 11
82.73000000000002
 21
443.5499999999997
 31
0.0
  0
LINE
  5
1E5
330
1F
100
AcDbEntity
  8
作業ﾚｲﾔ1
  6
Continuous
 62
     7
370
    18
100
AcDbLine
 10
82.73000000000002
 20
443.9499999999997
 30
0.0
 11
82.73000000000002
 21
444.3499999999997
 31
0.0
  0
LINE
  5
1E6
330
1F
100
AcDbEntity
  8
作業ﾚｲﾔ1
  6
Continuous
 62
     7
370
    18
100
AcDbLine
 10
82.73000000000002
 20
444.7499999999997
 30
0.0
 11
82.73000000000002
 21
446.7499999999997
 31
0.0
  0
LINE
  5
1E7
330
1F
100
AcDbEntity
  8
作業ﾚｲﾔ1
  6
Continuous
 62
     7
370
    18
100
AcDbLine
 10
82.73000000000002
 20
447.1499999999996
 30
0.0
 11
82.73000000000002
 21
447.5499999999996
 31
0.0
  0
LINE
  5
1E8
330
1F
100
AcDbEntity
  8
作業ﾚｲﾔ1
  6
Continuous
 62
     7
370
    18
100
AcDbLine
 10
82.73000000000002
 20
447.9499999999996
 30
0.0
 11
82.73000000000002
 21
449.5999999999996
 31
0.0
  0
LINE
  5
1E9
330
1F
100
AcDbEntity
  8
作業ﾚｲﾔ1
  6
Continuous
 62
     7
370
    18
100
AcDbLine
 10
82.43000000000046
 20
449.6
 30
0.0
 11
83.02999999999957
 21
449.6
 31
0.0
  0
LINE
  5
1EA
330
1F
100
AcDbEntity
  8
作業ﾚｲﾔ1
  6
Continuous
 62
     7
370
    18
100
AcDbLine
 10
102.89
 20
440.81
 30
0.0
 11
102.89
 21
442.51
 31
0.0
  0
LINE
  5
1EB
330
1F
100
AcDbEntity
  8
作業ﾚｲﾔ1
  6
Continuous
 62
     7
370
    18
100
AcDbLine
 10
102.89
 20
442.91
 30
0.0
 11
102.89
 21
443.3099999999999
 31
0.0
  0
LINE
  5
1EC
330
1F
100
AcDbEntity
  8
作業ﾚｲﾔ1
  6
Continuous
 62
     7
370
    18
100
AcDbLine
 10
102.89
 20
443.7099999999999
 30
0.0
 11
102.89
 21
445.7099999999999
 31
0.0
  0
LINE
  5
1ED
330
1F
100
AcDbEntity
  8
作業ﾚｲﾔ1
  6
Continuous
 62
     7
370
    18
100
AcDbLine
 10
102.89
 20
446.1099999999999
 30
0.0
 11
102.89
 21
446.5099999999999
 31
0.0
  0
LINE
  5
1EE
330
1F
100
AcDbEntity
  8
作業ﾚｲﾔ1
  6
Continuous
 62
     7
370
    18
100
AcDbLine
 10
102.89
 20
446.9099999999999
 30
0.0
 11
102.89
 21
448.9099999999999
 31
0.0
  0
LINE
  5
1EF
330
1F
100
AcDbEntity
  8
作業ﾚｲﾔ1
  6
Continuous
 62
     7
370
    18
100
AcDbLine
 10
102.89
 20
449.3099999999998
 30
0.0
 11
102.89
 21
449.7099999999998
 31
0.0
  0
LINE
  5
1F0
330
1F
100
AcDbEntity
  8
作業ﾚｲﾔ1
  6
Continuous
 62
     7
370
    18
100
AcDbLine
 10
102.89
 20
450.1099999999998
 30
0.0
 11
102.89
 21
451.8099999999998
 31
0.0
  0
LINE
  5
1F1
330
1F
100
AcDbEntity
  8
作業ﾚｲﾔ1
  6
Continuous
 62
     7
370
    18
100
AcDbLine
 10
102.5900000000005
 20
451.81
 30
0.0
 11
103.1899999999996
 21
451.81
 31
0.0
  0
LINE
  5
1F2
330
1F
100
AcDbEntity
  8
作業ﾚｲﾔ1
  6
Continuous
 62
     7
370
    18
100
AcDbLine
 10
146.4
 20
440.02
 30
0.0
 11
146.4
 21
441.72
 31
0.0
  0
LINE
  5
1F3
330
1F
100
AcDbEntity
  8
作業ﾚｲﾔ1
  6
Continuous
 62
     7
370
    18
100
AcDbLine
 10
146.4
 20
442.1199999999999
 30
0.0
 11
146.4
 21
442.5199999999999
 31
0.0
  0
LINE
  5
1F4
330
1F
100
AcDbEntity
  8
作業ﾚｲﾔ1
  6
Continuous
 62
     7
370
    18
100
AcDbLine
 10
146.4
 20
442.9199999999999
 30
0.0
 11
146.4
 21
444.9199999999999
 31
0.0
  0
LINE
  5
1F5
330
1F
100
AcDbEntity
  8
作業ﾚｲﾔ1
  6
Continuous
 62
     7
370
    18
100
AcDbLine
 10
146.4
 20
445.3199999999999
 30
0.0
 11
146.4
 21
445.7199999999999
 31
0.0
  0
LINE
  5
1F6
330
1F
100
AcDbEntity
  8
作業ﾚｲﾔ1
  6
Continuous
 62
     7
370
    18
100
AcDbLine
 10
146.4
 20
446.1199999999998
 30
0.0
 11
146.4
 21
448.1199999999998
 31
0.0
  0
LINE
  5
1F7
330
1F
100
AcDbEntity
  8
作業ﾚｲﾔ1
  6
Continuous
 62
     7
370
    18
100
AcDbLine
 10
146.4
 20
448.5199999999998
 30
0.0
 11
146.4
 21
448.9199999999998
 31
0.0
  0
LINE
  5
1F8
330
1F
100
AcDbEntity
  8
作業ﾚｲﾔ1
  6
Continuous
 62
     7
370
    18
100
AcDbLine
 10
146.4
 20
449.3199999999998
 30
0.0
 11
146.4
 21
451.0199999999998
 31
0.0
  0
LINE
  5
1F9
330
1F
100
AcDbEntity
  8
作業ﾚｲﾔ1
  6
Continuous
 62
     7
370
    18
100
AcDbLine
 10
146.1000000000005
 20
451.02
 30
0.0
 11
146.6999999999996
 21
451.02
 31
0.0
  0
LINE
  5
1FA
330
1F
100
AcDbEntity
  8
作業ﾚｲﾔ1
  6
Continuous
 62
     7
370
    18
100
AcDbLine
 10
60.10000000000002
 20
426.88
 30
0.0
 11
60.10000000000002
 21
424.57
 31
0.0
  0
LINE
  5
1FB
330
1F
100
AcDbEntity
  8
作業ﾚｲﾔ1
  6
Continuous
 62
     7
370
    18
100
AcDbLine
 10
58.41000000000003
 20
425.57
 30
0.0
 11
58.41000000000001
 21
424.57
 31
0.0
  0
LINE
  5
1FC
330
1F
100
AcDbEntity
  8
作業ﾚｲﾔ1
  6
Continuous
 62
     7
370
    18
100
AcDbLine
 10
53.5
 20
425.76
 30
0.0
 11
53.49999999999999
 21
424.76
 31
0.0
  0
TEXT
  5
1FD
330
1F
100
AcDbEntity
  8
作業ﾚｲﾔ1
  6
Continuous
 62
     7
370
    13
100
AcDbText
 10
559.1977600785035
 20
450.8706613149726
 30
0.0
 40
1.915708812260537
  1
管理棟
  7
ＭＳ ゴシック
 72
     1
 11
562.9347936500009
 21
451.8285157211029
 31
0.0
100
AcDbText
 73
     2
  0
TEXT
  5
1FE
330
1F
100
AcDbEntity
  8
作業ﾚｲﾔ1
  6
Continuous
 62
     7
370
    13
100
AcDbText
 10
602.1733161096303
 20
434.9514582756241
 30
0.0
 40
1.915708812260537
  1
タイル
  7
ＭＳ ゴシック
 72
     1
 11
605.9103496811276
 21
435.9093126817543
 31
0.0
100
AcDbText
 73
     2
  0
LINE
  5
1FF
330
1F
100
AcDbEntity
  8
作業ﾚｲﾔ1
  6
Continuous
 62
     7
370
    18
100
AcDbLine
 10
615.85
 20
436.64
 30
0.0
 11
615.85
 21
435.64
 31
0.0
  0
LINE
  5
200
330
1F
100
AcDbEntity
  8
作業ﾚｲﾔ1
  6
Continuous
 62
     7
370
    18
100
AcDbLine
 10
647.61
 20
425.31
 30
0.0
 11
647.61
 21
424.31
 31
0.0
  0
TEXT
  5
201
330
1F
100
AcDbEntity
  8
作業ﾚｲﾔ1
  6
Continuous
 62
     7
370
    13
100
AcDbText
 10
688.218792885095
 20
421.898603174833
 30
0.0
 40
1.915708812260537
  1
As
  7
ＭＳ ゴシック
 72
     1
 11
689.4644707422608
 21
422.8564575809633
 31
0.0
100
AcDbText
 73
     2
  0
LINE
  5
202
330
1F
100
AcDbEntity
  8
測点名
  6
Continuous
 62
     7
370
    18
100
AcDbLine
 10
52.25
 20
500.0
 30
0.0
 11
70.75
 21
500.0
 31
0.0
  0
LINE
  5
203
330
1F
100
AcDbEntity
  8
測点名
  6
Continuous
 62
     7
370
    18
100
AcDbLine
 10
52.25
 20
501.0
 30
0.0
 11
70.75
 21
501.0
 31
0.0
  0
TEXT
  5
204
330
1F
100
AcDbEntity
  8
測点名
  6
Continuous
 62
     7
370
    13
100
AcDbText
 10
57.76296642850264
 20
502.7051547994291
 30
0.0
 40
3.831417624521073
  1
B2L
  7
ＭＳ ゴシック
 72
     1
 11
61.5
 21
502.005
 31
0.0
100
AcDbText
 73
     1
  0
LINE
  5
205
330
1F
100
AcDbEntity
  8
中心線
  6
chain
 62
     7
370
    18
100
AcDbLine
 10
61.5
 20
407.05
 30
0.0
 11
61.5
 21
447.05
 31
0.0
  0
TEXT
  5
206
330
1F
100
AcDbEntity
  8
ＧＨ
  6
Continuous
 62
     7
370
    13
100
AcDbText
 10
61.5
 20
492.3525773997146
 30
0.0
 40
1.915708812260537
  1
GH=2.71
  7
ＭＳ ゴシック
 11
61.5
 21
492.0025
 31
0.0
100
AcDbText
 73
     1
  0
TEXT
  5
207
330
1F
100
AcDbEntity
  8
ＰＨ
  6
Continuous
 62
     7
370
    13
100
AcDbText
 10
61.5
 20
495.3525773997146
 30
0.0
 40
1.915708812260537
  1
PH=2.71
  7
ＭＳ ゴシック
 11
61.5
 21
495.0025
 31
0.0
100
AcDbText
 73
     1
  0
LINE
  5
208
330
1F
100
AcDbEntity
  8
測点名
  6
Continuous
 62
     7
370
    18
100
AcDbLine
 10
690.75
 20
500.0
 30
0.0
 11
709.25
 21
500.0
 31
0.0
  0
LINE
  5
209
330
1F
100
AcDbEntity
  8
測点名
  6
Continuous
 62
     7
370
    18
100
AcDbLine
 10
690.75
 20
501.0
 30
0.0
 11
709.25
 21
501.0
 31
0.0
  0
TEXT
  5
20A
330
1F
100
AcDbEntity
  8
測点名
  6
Continuous
 62
     7
370
    13
100
AcDbText
 10
692.5259328570053
 20
502.7051547994291
 30
0.0
 40
3.831417624521073
  1
BNO.2R
  7
ＭＳ ゴシック
 72
     1
 11
700.0
 21
502.005
 31
0.0
100
AcDbText
 73
     1
  0
LINE
  5
20B
330
1F
100
AcDbEntity
  8
中心線
  6
chain
 62
     7
370
    18
100
AcDbLine
 10
700.0
 20
405.37
 30
0.0
 11
700.0
 21
445.37
 31
0.0
  0
TEXT
  5
20C
330
1F
100
AcDbEntity
  8
ＧＨ
  6
Continuous
 62
     7
370
    13
100
AcDbText
 10
700.0
 20
492.3525773997146
 30
0.0
 40
1.915708812260537
  1
GH=2.54
  7
ＭＳ ゴシック
 11
700.0
 21
492.0025
 31
0.0
100
AcDbText
 73
     1
  0
TEXT
  5
20D
330
1F
100
AcDbEntity
  8
ＰＨ
  6
Continuous
 62
     7
370
    13
100
AcDbText
 10
700.0
 20
495.3525773997146
 30
0.0
 40
1.915708812260537
  1
PH=2.54
  7
ＭＳ ゴシック
 11
700.0
 21
495.0025
 31
0.0
100
AcDbText
 73
     1
  0
LINE
  5
20E
330
1F
100
AcDbEntity
  8
作業ﾚｲﾔ1
  6
Continuous
 62
     7
370
    18
100
AcDbLine
 10
239.98
 20
282.78
 30
0.0
 11
283.83
 21
282.78
 31
0.0
  0
LINE
  5
20F
330
1F
100
AcDbEntity
  8
作業ﾚｲﾔ1
  6
Continuous
 62
     7
370
    18
100
AcDbLine
 10
261.905
 20
282.78
 30
0.0
 11
263.1050000000676
 21
284.4600000004813
 31
0.0
  0
LINE
  5
210
330
1F
100
AcDbEntity
  8
作業ﾚｲﾔ1
  6
Continuous
 62
     7
370
    18
100
AcDbLine
 10
263.1050000000676
 20
284.4600000004813
 30
0.0
 11
260.7050000000676
 21
284.4600000004813
 31
0.0
  0
LINE
  5
211
330
1F
100
AcDbEntity
  8
作業ﾚｲﾔ1
  6
Continuous
 62
     7
370
    18
100
AcDbLine
 10
260.7050000000676
 20
284.4600000004813
 30
0.0
 11
261.905
 21
282.78
 31
0.0
  0
LINE
  5
212
330
1F
100
AcDbEntity
  8
作業ﾚｲﾔ1
  6
Continuous
 62
     7
370
    18
100
AcDbLine
 10
263.1050000000676
 20
282.38
 30
0.0
 11
260.7050000000676
 21
282.38
 31
0.0
  0
LINE
  5
213
330
1F
100
AcDbEntity
  8
作業ﾚｲﾔ1
  6
Continuous
 62
     7
370
    18
100
AcDbLine
 10
262.5004616491694
 20
281.98
 30
0.0
 11
261.3095383508976
 21
281.98
 31
0.0
  0
LINE
  5
214
330
1F
100
AcDbEntity
  8
作業ﾚｲﾔ1
  6
Continuous
 62
     7
370
    18
100
AcDbLine
 10
262.2147473635209
 20
281.58
 30
0.0
 11
261.5952526365139
 21
281.58
 31
0.0
  0
TEXT
  5
215
330
1F
100
AcDbEntity
  8
作業ﾚｲﾔ1
  6
Continuous
 62
     7
370
    13
100
AcDbText
 10
574.5249285580632
 20
282.6994430577438
 30
0.0
 40
1.915708812260537
  1
CO
  7
ＭＳ ゴシック
 72
     1
 11
575.7706064152289
 21
283.657297463874
 31
0.0
100
AcDbText
 73
     2
  0
TEXT
  5
216
330
1F
100
AcDbEntity
  8
ＧＨ
  6
Continuous
 62
     7
370
    13
100
AcDbText
 10
400.0
 20
189.3525773997145
 30
0.0
 40
1.915708812260537
  1
FH=
  7
ＭＳ ゴシック
 11
400.0
 21
189.0025
 31
0.0
100
AcDbText
 73
     1
  0
TEXT
  5
217
330
1F
100
AcDbEntity
  8
ＧＨ
  6
Continuous
 62
     7
370
    13
100
AcDbText
 10
400.0
 20
339.3525773997146
 30
0.0
 40
1.915708812260537
  1
FH=
  7
ＭＳ ゴシック
 11
400.0
 21
339.0025
 31
0.0
100
AcDbText
 73
     1
  0
TEXT
  5
218
330
1F
100
AcDbEntity
  8
ＧＨ
  6
Continuous
 62
     7
370
    13
100
AcDbText
 10
399.9999999999999
 20
489.3525773997146
 30
0.0
 40
1.915708812260537
  1
FH=
  7
ＭＳ ゴシック
 11
399.9999999999999
 21
489.0025
 31
0.0
100
AcDbText
 73
     1
  0
TEXT
  5
219
330
1F
100
AcDbEntity
  8
ＧＨ
  6
Continuous
 62
     7
370
    13
100
AcDbText
 10
93.12
 20
189.3525773997145
 30
0.0
 40
1.915708812260537
  1
FH=
  7
ＭＳ ゴシック
 11
93.12
 21
189.0025
 31
0.0
100
AcDbText
 73
     1
  0
TEXT
  5
21A
330
1F
100
AcDbEntity
  8
ＧＨ
  6
Continuous
 62
     7
370
    13
100
AcDbText
 10
78.38
 20
339.3525773997146
 30
0.0
 40
1.915708812260537
  1
FH=
  7
ＭＳ ゴシック
 11
78.38
 21
339.0025
 31
0.0
100
AcDbText
 73
     1
  0
TEXT
  5
21B
330
1F
100
AcDbEntity
  8
ＧＨ
  6
Continuous
 62
     7
370
    13
100
AcDbText
 10
700.0
 20
339.3525773997146
 30
0.0
 40
1.915708812260537
  1
FH=
  7
ＭＳ ゴシック
 11
700.0
 21
339.0025
 31
0.0
100
AcDbText
 73
     1
  0
TEXT
  5
21C
330
1F
100
AcDbEntity
  8
ＧＨ
  6
Continuous
 62
     7
370
    13
100
AcDbText
 10
61.5
 20
489.3525773997146
 30
0.0
 40
1.915708812260537
  1
FH=
  7
ＭＳ ゴシック
 11
61.5
 21
489.0025
 31
0.0
100
AcDbText
 73
     1
  0
TEXT
  5
21D
330
1F
100
AcDbEntity
  8
ＧＨ
  6
Continuous
 62
     7
370
    13
100
AcDbText
 10
700.0
 20
489.3525773997146
 30
0.0
 40
1.915708812260537
  1
FH=
  7
ＭＳ ゴシック
 11
700.0
 21
489.0025
 31
0.0
100
AcDbText
 73
     1
  0
TEXT
  5
21E
330
1F
100
AcDbEntity
  8
作業ﾚｲﾔ7
  6
Continuous
 62
     7
370
    18
100
AcDbText
 10
743.4389675078917
 20
43.80717496537839
 30
0.0
 40
2.681992337164751
  1
横須賀市久里浜6丁目642番6
  7
ＭＳ ゴシック
 72
     1
 11
765.2383300082929
 21
45.14817113396077
 31
0.0
100
AcDbText
 73
     2
  0
TEXT
  5
21F
330
1F
100
AcDbEntity
  8
作業ﾚｲﾔ7
  6
Continuous
 62
     7
370
    13
100
AcDbText
 10
749.7158295610876
 20
54.11008184837343
 30
0.0
 40
2.681992337164751
  1
久里浜公園測量業務
  7
ＭＳ ゴシック
 72
     1
 11
765.4113705613765
 21
55.45107801695581
 31
0.0
100
AcDbText
 73
     2
  0
TEXT
  5
220
330
1F
100
AcDbEntity
  8
作業ﾚｲﾔ7
  6
Continuous
 62
     7
370
    18
100
AcDbText
 10
774.6643314997914
 20
26.25000383142245
 30
0.0
 40
2.681992337164751
  1
令和4年3月3日
  7
ＭＳ ゴシック
 72
     1
 11
786.0
 21
27.59100000000483
 31
0.0
100
AcDbText
 73
     2
  0
LINE
  5
221
330
1F
100
AcDbEntity
  8
作業ﾚｲﾔ1
  6
Continuous
 62
     7
370
    13
100
AcDbLine
 10
264.2602361663965
 20
126.254085270861
 30
0.0
 11
266.0648195983407
 21
120.4547928809841
 31
0.0
  0
LINE
  5
222
330
1F
100
AcDbEntity
  8
作業ﾚｲﾔ1
  6
Continuous
 62
     7
370
    13
100
AcDbLine
 10
264.2602361663965
 20
126.254085270861
 30
0.0
 11
265.3318970962235
 21
124.4929654988176
 31
0.0
  0
TEXT
  5
223
330
1F
100
AcDbEntity
  8
作業ﾚｲﾔ1
  6
Continuous
 62
     7
370
    13
100
AcDbText
 10
265.9748392256592
 20
117.7608100341088
 30
0.0
 40
1.915708812260537
  1
Co
  7
ＭＳ ゴシック
 11
265.9748392256592
 21
118.718664440239
 31
0.0
100
AcDbText
 73
     2
  0
LINE
  5
224
330
1F
100
AcDbEntity
  8
作業ﾚｲﾔ1
  6
Continuous
 62
     7
370
    13
100
AcDbLine
 10
526.3793936850886
 20
125.8376503979585
 30
0.0
 11
528.1839771170328
 21
120.0383580080816
 31
0.0
  0
LINE
  5
225
330
1F
100
AcDbEntity
  8
作業ﾚｲﾔ1
  6
Continuous
 62
     7
370
    13
100
AcDbLine
 10
526.3793936850886
 20
125.8376503979585
 30
0.0
 11
527.4510546149156
 21
124.076530625915
 31
0.0
  0
TEXT
  5
226
330
1F
100
AcDbEntity
  8
作業ﾚｲﾔ1
  6
Continuous
 62
     7
370
    13
100
AcDbText
 10
527.4786986777016
 20
117.4506919520489
 30
0.0
 40
1.915708812260537
  1
Co
  7
ＭＳ ゴシック
 72
     1
 11
528.7243765348674
 21
118.4085463581792
 31
0.0
100
AcDbText
 73
     2
  0
LINE
  5
227
330
1F
100
AcDbEntity
  8
作業ﾚｲﾔ1
  6
Continuous
 62
     7
370
    13
100
AcDbLine
 10
246.7779833327748
 20
124.7571455907205
 30
0.0
 11
248.582566764719
 21
118.9578532008436
 31
0.0
  0
LINE
  5
228
330
1F
100
AcDbEntity
  8
作業ﾚｲﾔ1
  6
Continuous
 62
     7
370
    13
100
AcDbLine
 10
246.7779833327748
 20
124.7571455907205
 30
0.0
 11
247.8496442626018
 21
122.9960258186771
 31
0.0
  0
TEXT
  5
229
330
1F
100
AcDbEntity
  8
作業ﾚｲﾔ1
  6
Continuous
 62
     7
370
    13
100
AcDbText
 10
247.8194517162888
 20
116.0092956614034
 30
0.0
 40
1.915708812260537
  1
エプロン
  7
ＭＳ ゴシック
 11
247.8194517162888
 21
116.9671500675337
 31
0.0
100
AcDbText
 73
     2
  0
LINE
  5
22A
330
1F
100
AcDbEntity
  8
作業ﾚｲﾔ1
  6
Continuous
 62
     7
370
    13
100
AcDbLine
 10
246.8267434496774
 20
128.0626088053044
 30
0.0
 11
249.3949679926163
 21
132.97177438207
 31
0.0
  0
LINE
  5
22B
330
1F
100
AcDbEntity
  8
作業ﾚｲﾔ1
  6
Continuous
 62
     7
370
    13
100
AcDbLine
 10
246.8267434496774
 20
128.0626088053044
 30
0.0
 11
247.3108026346364
 21
130.0665266443031
 31
0.0
  0
TEXT
  5
22C
330
1F
100
AcDbEntity
  8
作業ﾚｲﾔ1
  6
Continuous
 62
     7
370
    13
100
AcDbText
 10
249.550280246451
 20
133.5888707012959
 30
0.0
 40
1.915708812260537
  1
RC
  7
ＭＳ ゴシック
 11
249.550280246451
 21
134.5467251074262
 31
0.0
100
AcDbText
 73
     2
  0
LINE
  5
22D
330
1F
100
AcDbEntity
  8
作業ﾚｲﾔ1
  6
Continuous
 62
     7
370
    13
100
AcDbLine
 10
505.9267293799404
 20
124.2087892303982
 30
0.0
 11
507.4999121516414
 21
118.5048581051133
 31
0.0
  0
LINE
  5
22E
330
1F
100
AcDbEntity
  8
作業ﾚｲﾔ1
  6
Continuous
 62
     7
370
    13
100
AcDbLine
 10
505.9267293799404
 20
124.2087892303982
 30
0.0
 11
506.940491425432
 21
122.4137163864387
 31
0.0
  0
TEXT
  5
22F
330
1F
100
AcDbEntity
  8
作業ﾚｲﾔ1
  6
Continuous
 62
     7
370
    13
100
AcDbText
 10
505.8383742144147
 20
115.6601796794672
 30
0.0
 40
1.915708812260537
  1
エプロン
  7
ＭＳ ゴシック
 11
505.8383742144147
 21
116.6180340855975
 31
0.0
100
AcDbText
 73
     2
  0
LINE
  5
230
330
1F
100
AcDbEntity
  8
作業ﾚｲﾔ1
  6
Continuous
 62
     7
370
    13
100
AcDbLine
 10
505.7440888365997
 20
127.6096137095741
 30
0.0
 11
508.3123133795386
 21
132.5187792863397
 31
0.0
  0
LINE
  5
231
330
1F
100
AcDbEntity
  8
作業ﾚｲﾔ1
  6
Continuous
 62
     7
370
    13
100
AcDbLine
 10
505.7440888365997
 20
127.6096137095741
 30
0.0
 11
506.2281480215587
 21
129.6135315485727
 31
0.0
  0
TEXT
  5
232
330
1F
100
AcDbEntity
  8
作業ﾚｲﾔ1
  6
Continuous
 62
     7
370
    13
100
AcDbText
 10
508.3098237300538
 20
133.155654900496
 30
0.0
 40
1.915708812260537
  1
RC
  7
ＭＳ ゴシック
 11
508.3098237300538
 21
134.1135093066263
 31
0.0
100
AcDbText
 73
     2
  0
LINE
  5
233
330
1F
100
AcDbEntity
  8
作業ﾚｲﾔ1
  6
Continuous
 62
     7
370
    13
100
AcDbLine
 10
257.0766785042772
 20
148.6918628837746
 30
0.0
 11
259.6449030472161
 21
153.6010284605402
 31
0.0
  0
LINE
  5
234
330
1F
100
AcDbEntity
  8
作業ﾚｲﾔ1
  6
Continuous
 62
     7
370
    13
100
AcDbLine
 10
257.0766785042772
 20
148.6918628837746
 30
0.0
 11
257.5607376892362
 21
150.6957807227732
 31
0.0
  0
TEXT
  5
235
330
1F
100
AcDbEntity
  8
作業ﾚｲﾔ1
  6
Continuous
 62
     7
370
    13
100
AcDbText
 10
259.6449030472161
 20
152.7081740544099
 30
0.0
 40
1.915708812260537
  1
フェンス
  7
ＭＳ ゴシック
 11
259.6449030472161
 21
153.6660284605402
 31
0.0
100
AcDbText
 73
     2
  0
LINE
  5
236
330
1F
100
AcDbEntity
  8
作業ﾚｲﾔ1
  6
Continuous
 62
     7
370
    13
100
AcDbLine
 10
504.8554068667246
 20
148.3146976073267
 30
0.0
 11
507.4236314096635
 21
153.2238631840923
 31
0.0
  0
LINE
  5
237
330
1F
100
AcDbEntity
  8
作業ﾚｲﾔ1
  6
Continuous
 62
     7
370
    13
100
AcDbLine
 10
504.8554068667246
 20
148.3146976073267
 30
0.0
 11
505.3394660516836
 21
150.3186154463253
 31
0.0
  0
TEXT
  5
238
330
1F
100
AcDbEntity
  8
作業ﾚｲﾔ1
  6
Continuous
 62
     7
370
    13
100
AcDbText
 10
507.4945980665526
 20
154.3035377790705
 30
0.0
 40
1.915708812260537
  1
フェンス
  7
ＭＳ ゴシック
 11
507.4945980665526
 21
155.2613921852007
 31
0.0
100
AcDbText
 73
     2
  0
LINE
  5
239
330
1F
100
AcDbEntity
  8
作業ﾚｲﾔ1
  6
Continuous
 62
     7
370
    13
100
AcDbLine
 10
184.2069807955592
 20
286.624785083717
 30
0.0
 11
182.402397363615
 21
280.8254926938401
 31
0.0
  0
LINE
  5
23A
330
1F
100
AcDbEntity
  8
作業ﾚｲﾔ1
  6
Continuous
 62
     7
370
    13
100
AcDbLine
 10
184.2069807955592
 20
286.624785083717
 30
0.0
 11
183.1353198657322
 21
284.8636653116736
 31
0.0
  0
TEXT
  5
23B
330
1F
100
AcDbEntity
  8
作業ﾚｲﾔ1
  6
Continuous
 62
     7
370
    13
100
AcDbText
 10
178.7580193302211
 20
278.1406623525831
 30
0.0
 40
1.915708812260537
  1
縁石
  7
ＭＳ ゴシック
 72
     2
 11
183.7407307588843
 21
279.0985167587133
 31
0.0
100
AcDbText
 73
     2
  0
LINE
  5
23C
330
1F
100
AcDbEntity
  8
作業ﾚｲﾔ1
  6
Continuous
 62
     7
370
    13
100
AcDbLine
 10
339.550425681843
 20
286.6659375846564
 30
0.0
 11
341.3550091137873
 21
280.8666451947795
 31
0.0
  0
LINE
  5
23D
330
1F
100
AcDbEntity
  8
作業ﾚｲﾔ1
  6
Continuous
 62
     7
370
    13
100
AcDbLine
 10
339.550425681843
 20
286.6659375846564
 30
0.0
 11
340.6220866116701
 21
284.904817812613
 31
0.0
  0
TEXT
  5
23E
330
1F
100
AcDbEntity
  8
作業ﾚｲﾔ1
  6
Continuous
 62
     7
370
    13
100
AcDbText
 10
341.1145514805887
 20
278.04706739288
 30
0.0
 40
1.915708812260537
  1
縁石
  7
ＭＳ ゴシック
 11
341.1145514805887
 21
279.0049217990102
 31
0.0
100
AcDbText
 73
     2
  0
LINE
  5
23F
330
1F
100
AcDbEntity
  8
作業ﾚｲﾔ1
  6
Continuous
 62
     7
370
    13
100
AcDbLine
 10
492.5580748297808
 20
286.8459375846563
 30
0.0
 11
490.7534913978365
 21
281.0466451947794
 31
0.0
  0
LINE
  5
240
330
1F
100
AcDbEntity
  8
作業ﾚｲﾔ1
  6
Continuous
 62
     7
370
    13
100
AcDbLine
 10
492.5580748297808
 20
286.8459375846563
 30
0.0
 11
491.4864138999537
 21
285.0848178126129
 31
0.0
  0
TEXT
  5
241
330
1F
100
AcDbEntity
  8
作業ﾚｲﾔ1
  6
Continuous
 62
     7
370
    13
100
AcDbText
 10
486.6895060995973
 20
278.4472197568281
 30
0.0
 40
1.915708812260537
  1
縁石
  7
ＭＳ ゴシック
 72
     2
 11
491.6722175282605
 21
279.4050741629583
 31
0.0
100
AcDbText
 73
     2
  0
LINE
  5
242
330
1F
100
AcDbEntity
  8
作業ﾚｲﾔ1
  6
Continuous
 62
     7
370
    13
100
AcDbLine
 10
504.2292916080704
 20
279.1937416319986
 30
0.0
 11
500.6073361336954
 21
271.7467303762744
 31
0.0
  0
LINE
  5
243
330
1F
100
AcDbEntity
  8
作業ﾚｲﾔ1
  6
Continuous
 62
     7
370
    13
100
AcDbLine
 10
504.2292916080704
 20
279.1937416319986
 30
0.0
 11
502.9048995704757
 21
277.6138727353
 31
0.0
  0
TEXT
  5
244
330
1F
100
AcDbEntity
  8
作業ﾚｲﾔ1
  6
Continuous
 62
     7
370
    13
100
AcDbText
 10
490.4002917606234
 20
268.8272856377758
 30
0.0
 40
1.915708812260537
  1
汚水φ0.45
  7
ＭＳ ゴシック
 72
     1
 11
496.6286810464523
 21
269.785140043906
 31
0.0
100
AcDbText
 73
     2
  0
LINE
  5
245
330
1F
100
AcDbEntity
  8
作業ﾚｲﾔ1
  6
Continuous
 62
     7
370
    13
100
AcDbLine
 10
524.8992916080704
 20
279.1243668944708
 30
0.0
 11
521.2773361336954
 21
271.6773556387466
 31
0.0
  0
LINE
  5
246
330
1F
100
AcDbEntity
  8
作業ﾚｲﾔ1
  6
Continuous
 62
     7
370
    13
100
AcDbLine
 10
524.8992916080704
 20
279.1243668944708
 30
0.0
 11
523.5748995704756
 21
277.5444979977722
 31
0.0
  0
TEXT
  5
247
330
1F
100
AcDbEntity
  8
作業ﾚｲﾔ1
  6
Continuous
 62
     7
370
    13
100
AcDbText
 10
511.1539567382744
 20
268.4854605675557
 30
0.0
 40
1.915708812260537
  1
汚水φ0.45
  7
ＭＳ ゴシック
 72
     1
 11
517.3823460241033
 21
269.4433149736859
 31
0.0
100
AcDbText
 73
     2
  0
LINE
  5
248
330
1F
100
AcDbEntity
  8
作業ﾚｲﾔ1
  6
Continuous
 62
     7
370
    13
100
AcDbLine
 10
558.3518843750336
 20
277.7903259663638
 30
0.0
 11
554.7299289006586
 21
270.3433147106396
 31
0.0
  0
LINE
  5
249
330
1F
100
AcDbEntity
  8
作業ﾚｲﾔ1
  6
Continuous
 62
     7
370
    13
100
AcDbLine
 10
558.3518843750336
 20
277.7903259663638
 30
0.0
 11
557.0274923374388
 21
276.2104570696652
 31
0.0
  0
TEXT
  5
24A
330
1F
100
AcDbEntity
  8
作業ﾚｲﾔ1
  6
Continuous
 62
     7
370
    13
100
AcDbText
 10
544.1522840527391
 20
267.2524487071188
 30
0.0
 40
1.915708812260537
  1
汚水φ0.36
  7
ＭＳ ゴシック
 72
     1
 11
550.380673338568
 21
268.210303113249
 31
0.0
100
AcDbText
 73
     2
  0
LINE
  5
24B
330
1F
100
AcDbEntity
  8
作業ﾚｲﾔ1
  6
Continuous
 62
     7
370
    13
100
AcDbLine
 10
592.7618843750337
 20
277.9703259663638
 30
0.0
 11
589.1399289006587
 21
270.5233147106396
 31
0.0
  0
LINE
  5
24C
330
1F
100
AcDbEntity
  8
作業ﾚｲﾔ1
  6
Continuous
 62
     7
370
    13
100
AcDbLine
 10
592.7618843750337
 20
277.9703259663638
 30
0.0
 11
591.4374923374389
 21
276.3904570696652
 31
0.0
  0
TEXT
  5
24D
330
1F
100
AcDbEntity
  8
作業ﾚｲﾔ1
  6
Continuous
 62
     7
370
    13
100
AcDbText
 10
578.1272544249758
 20
267.4172572231178
 30
0.0
 40
1.915708812260537
  1
汚水φ0.36
  7
ＭＳ ゴシック
 72
     1
 11
584.3556437108048
 21
268.375111629248
 31
0.0
100
AcDbText
 73
     2
  0
LINE
  5
24E
330
1F
100
AcDbEntity
  8
作業ﾚｲﾔ1
  6
Continuous
 62
     7
370
    13
100
AcDbLine
 10
610.0718843750336
 20
277.9603259663638
 30
0.0
 11
606.4499289006586
 21
270.5133147106396
 31
0.0
  0
LINE
  5
24F
330
1F
100
AcDbEntity
  8
作業ﾚｲﾔ1
  6
Continuous
 62
     7
370
    13
100
AcDbLine
 10
610.0718843750336
 20
277.9603259663638
 30
0.0
 11
608.7474923374389
 21
276.3804570696652
 31
0.0
  0
TEXT
  5
250
330
1F
100
AcDbEntity
  8
作業ﾚｲﾔ1
  6
Continuous
 62
     7
370
    13
100
AcDbText
 10
595.2185079359823
 20
267.0266000000091
 30
0.0
 40
1.915708812260537
  1
汚水φ0.36
  7
ＭＳ ゴシック
 72
     1
 11
601.4468972218112
 21
267.9844544061393
 31
0.0
100
AcDbText
 73
     2
  0
LINE
  5
251
330
1F
100
AcDbEntity
  8
作業ﾚｲﾔ1
  6
Continuous
 62
     7
370
    13
100
AcDbLine
 10
617.1165897554437
 20
287.2819872525107
 30
0.0
 11
618.4053239772522
 21
284.2108097510027
 31
0.0
  0
LINE
  5
252
330
1F
100
AcDbEntity
  8
作業ﾚｲﾔ1
  6
Continuous
 62
     7
370
    13
100
AcDbLine
 10
617.1165897554437
 20
287.2819872525107
 30
0.0
 11
618.3515156163642
 21
285.6312425363205
 31
0.0
  0
TEXT
  5
253
330
1F
100
AcDbEntity
  8
作業ﾚｲﾔ1
  6
Continuous
 62
     7
370
    13
100
AcDbText
 10
618.5890175587435
 20
281.3873222953287
 30
0.0
 40
1.915708812260537
  1
縁石
  7
ＭＳ ゴシック
 11
618.5890175587435
 21
282.345176701459
 31
0.0
100
AcDbText
 73
     2
  0
LINE
  5
254
330
1F
100
AcDbEntity
  8
作業ﾚｲﾔ1
  6
Continuous
 62
     7
370
    13
100
AcDbLine
 10
613.69
 20
284.69
 30
0.0
 11
616.1229938378699
 21
279.7083499826599
 31
0.0
  0
LINE
  5
255
330
1F
100
AcDbEntity
  8
作業ﾚｲﾔ1
  6
Continuous
 62
     7
370
    13
100
AcDbLine
 10
613.69
 20
284.69
 30
0.0
 11
615.0169786456601
 21
283.1123030474891
 31
0.0
  0
TEXT
  5
256
330
1F
100
AcDbEntity
  8
作業ﾚｲﾔ1
  6
Continuous
 62
     7
370
    13
100
AcDbText
 10
615.0486864743208
 20
277.2420150945639
 30
0.0
 40
1.915708812260537
  1
マス
  7
ＭＳ ゴシック
 11
615.0486864743208
 21
278.1998695006941
 31
0.0
100
AcDbText
 73
     2
  0
TEXT
  5
257
330
1F
100
AcDbEntity
  8
作業ﾚｲﾔ1
  6
Continuous
 62
     7
370
    13
100
AcDbText
 10
204.0549008215784
 20
281.981821288651
 30
0.0
 40
1.915708812260537
  1
Co
  7
ＭＳ ゴシック
 72
     1
 11
205.3005786787442
 21
282.9396756947812
 31
0.0
100
AcDbText
 73
     2
  0
TEXT
  5
258
330
1F
100
AcDbEntity
  8
作業ﾚｲﾔ1
  6
Continuous
 62
     7
370
    13
100
AcDbText
 10
194.8237088909818
 20
279.0936000891774
 30
0.0
 40
1.915708812260537
  1
(Co上1㎝厚マット)
  7
ＭＳ ゴシック
 72
     1
 11
205.4119706768909
 21
280.0514544953077
 31
0.0
100
AcDbText
 73
     2
  0
TEXT
  5
259
330
1F
100
AcDbEntity
  8
作業ﾚｲﾔ1
  6
Continuous
 62
     7
370
    13
100
AcDbText
 10
315.9171550511166
 20
281.9146770784292
 30
0.0
 40
1.915708812260537
  1
Co
  7
ＭＳ ゴシック
 72
     1
 11
317.1628329082824
 21
282.8725314845595
 31
0.0
100
AcDbText
 73
     2
  0
TEXT
  5
25A
330
1F
100
AcDbEntity
  8
作業ﾚｲﾔ1
  6
Continuous
 62
     7
370
    13
100
AcDbText
 10
306.6859631205199
 20
279.0264558789557
 30
0.0
 40
1.915708812260537
  1
(Co上1㎝厚マット)
  7
ＭＳ ゴシック
 72
     1
 11
317.2742249064291
 21
279.9843102850859
 31
0.0
100
AcDbText
 73
     2
  0
TEXT
  5
25B
330
1F
100
AcDbEntity
  8
作業ﾚｲﾔ1
  6
Continuous
 62
     7
370
    13
100
AcDbText
 10
380.3654234988705
 20
285.4082106830004
 30
0.0
 40
1.915708812260537
  1
Co
  7
ＭＳ ゴシック
 72
     1
 11
381.6111013560363
 21
286.3660650891307
 31
0.0
100
AcDbText
 73
     2
  0
TEXT
  5
25C
330
1F
100
AcDbEntity
  8
作業ﾚｲﾔ1
  6
Continuous
 62
     7
370
    13
100
AcDbText
 10
371.1342315682738
 20
282.519989483527
 30
0.0
 40
1.915708812260537
  1
(Co上1㎝厚マット)
  7
ＭＳ ゴシック
 72
     1
 11
381.722493354183
 21
283.4778438896572
 31
0.0
100
AcDbText
 73
     2
  0
TEXT
  5
25D
330
1F
100
AcDbEntity
  8
作業ﾚｲﾔ1
  6
Continuous
 62
     7
370
    13
100
AcDbText
 10
145.3252136504059
 20
433.4827348797539
 30
0.0
 40
1.915708812260537
  1
RC
  7
ＭＳ ゴシック
 11
145.3252136504059
 21
434.4405892858841
 31
0.0
100
AcDbText
 73
     2
  0
TEXT
  5
25E
330
1F
100
AcDbEntity
  8
作業ﾚｲﾔ1
  6
Continuous
 62
     7
370
    13
100
AcDbText
 10
176.2257875247389
 20
431.5901851974865
 30
0.0
 40
1.915708812260537
  1
Co
  7
ＭＳ ゴシック
 72
     1
 11
177.4714653819047
 21
432.5480396036168
 31
0.0
100
AcDbText
 73
     2
  0
TEXT
  5
25F
330
1F
100
AcDbEntity
  8
作業ﾚｲﾔ1
  6
Continuous
 62
     7
370
    13
100
AcDbText
 10
166.9945955941423
 20
428.701963998013
 30
0.0
 40
1.915708812260537
  1
(Co上1㎝厚マット)
  7
ＭＳ ゴシック
 72
     1
 11
177.5828573800515
 21
429.6598184041432
 31
0.0
100
AcDbText
 73
     2
  0
TEXT
  5
260
330
1F
100
AcDbEntity
  8
作業ﾚｲﾔ1
  6
Continuous
 62
     7
370
    13
100
AcDbText
 10
218.9661293404775
 20
425.6570786215228
 30
0.0
 40
1.915708812260537
  1
Co
  7
ＭＳ ゴシック
 72
     1
 11
220.2118071976433
 21
426.614933027653
 31
0.0
100
AcDbText
 73
     2
  0
TEXT
  5
261
330
1F
100
AcDbEntity
  8
作業ﾚｲﾔ1
  6
Continuous
 62
     7
370
    13
100
AcDbText
 10
209.7349374098809
 20
422.7688574220492
 30
0.0
 40
1.915708812260537
  1
(Co上1㎝厚マット)
  7
ＭＳ ゴシック
 72
     1
 11
220.3231991957901
 21
423.7267118281795
 31
0.0
100
AcDbText
 73
     2
  0
TEXT
  5
262
330
1F
100
AcDbEntity
  8
作業ﾚｲﾔ1
  6
Continuous
 62
     7
370
    13
100
AcDbText
 10
261.1296413502198
 20
430.4989222252955
 30
0.0
 40
1.915708812260537
  1
Co
  7
ＭＳ ゴシック
 72
     1
 11
262.3753192073856
 21
431.4567766314258
 31
0.0
100
AcDbText
 73
     2
  0
TEXT
  5
263
330
1F
100
AcDbEntity
  8
作業ﾚｲﾔ1
  6
Continuous
 62
     7
370
    13
100
AcDbText
 10
251.8984494196232
 20
427.610701025822
 30
0.0
 40
1.915708812260537
  1
(Co上1㎝厚マット)
  7
ＭＳ ゴシック
 72
     1
 11
262.4867112055324
 21
428.5685554319522
 31
0.0
100
AcDbText
 73
     2
  0
TEXT
  5
264
330
1F
100
AcDbEntity
  8
作業ﾚｲﾔ1
  6
Continuous
 62
     7
370
    13
100
AcDbText
 10
364.2448361935893
 20
430.9017874866263
 30
0.0
 40
1.915708812260537
  1
Co
  7
ＭＳ ゴシック
 72
     1
 11
365.4905140507551
 21
431.8596418927566
 31
0.0
100
AcDbText
 73
     2
  0
TEXT
  5
265
330
1F
100
AcDbEntity
  8
作業ﾚｲﾔ1
  6
Continuous
 62
     7
370
    13
100
AcDbText
 10
355.0136442629927
 20
428.0135662871528
 30
0.0
 40
1.915708812260537
  1
(Co上1㎝厚マット)
  7
ＭＳ ゴシック
 72
     1
 11
365.6019060489019
 21
428.9714206932831
 31
0.0
100
AcDbText
 73
     2
  0
TEXT
  5
266
330
1F
100
AcDbEntity
  8
作業ﾚｲﾔ1
  6
Continuous
 62
     7
370
    13
100
AcDbText
 10
453.1498745463791
 20
431.9638868119533
 30
0.0
 40
1.915708812260537
  1
Co
  7
ＭＳ ゴシック
 72
     1
 11
454.3955524035449
 21
432.9217412180835
 31
0.0
100
AcDbText
 73
     2
  0
TEXT
  5
267
330
1F
100
AcDbEntity
  8
作業ﾚｲﾔ1
  6
Continuous
 62
     7
370
    13
100
AcDbText
 10
443.9186826157825
 20
429.0756656124797
 30
0.0
 40
1.915708812260537
  1
(Co上1㎝厚マット)
  7
ＭＳ ゴシック
 72
     1
 11
454.5069444016917
 21
430.03352001861
 31
0.0
100
AcDbText
 73
     2
  0
LINE
  5
268
330
1F
100
AcDbEntity
  8
作業ﾚｲﾔ1
  6
Continuous
 62
     7
370
    13
100
AcDbLine
 10
228.802693008534
 20
435.4700083711601
 30
0.0
 11
232.2759736716646
 21
441.3594842782076
 31
0.0
  0
LINE
  5
269
330
1F
100
AcDbEntity
  8
作業ﾚｲﾔ1
  6
Continuous
 62
     7
370
    13
100
AcDbLine
 10
228.802693008534
 20
435.4700083711601
 30
0.0
 11
229.3879800967307
 21
437.4467326878998
 31
0.0
  0
TEXT
  5
26A
330
1F
100
AcDbEntity
  8
作業ﾚｲﾔ1
  6
Continuous
 62
     7
370
    13
100
AcDbText
 10
227.6635476152088
 20
442.6180777038214
 30
0.0
 40
1.915708812260537
  1
プール溝
  7
ＭＳ ゴシック
 72
     1
 11
232.646259043872
 21
443.5759321099516
 31
0.0
100
AcDbText
 73
     2
  0
LINE
  5
26B
330
1F
100
AcDbEntity
  8
作業ﾚｲﾔ1
  6
Continuous
 62
     7
370
    13
100
AcDbLine
 10
210.7819034809869
 20
436.2502380853416
 30
0.0
 11
214.2551841441175
 21
442.139713992389
 31
0.0
  0
LINE
  5
26C
330
1F
100
AcDbEntity
  8
作業ﾚｲﾔ1
  6
Continuous
 62
     7
370
    13
100
AcDbLine
 10
210.7819034809869
 20
436.2502380853416
 30
0.0
 11
211.3671905691836
 21
438.2269624020813
 31
0.0
  0
TEXT
  5
26D
330
1F
100
AcDbEntity
  8
作業ﾚｲﾔ1
  6
Continuous
 62
     7
370
    13
100
AcDbText
 10
210.1816368810935
 20
442.4968595862588
 30
0.0
 40
1.915708812260537
  1
プール溝
  7
ＭＳ ゴシック
 72
     1
 11
215.1643483097566
 21
443.454713992389
 31
0.0
100
AcDbText
 73
     2
  0
TEXT
  5
26E
330
1F
100
AcDbEntity
  8
ＰＨ
  6
Continuous
 62
     7
370
    13
100
AcDbText
 10
408.75
 20
195.3525773997145
 30
0.0
 40
1.915708812260537
  1
（市コンクリート杭天端）
  7
ＭＳ ゴシック
 11
408.75
 21
195.0025
 31
0.0
100
AcDbText
 73
     1
  0
LINE
  5
26F
330
1F
100
AcDbEntity
  8
作業ﾚｲﾔ1
  6
Continuous
 62
     7
370
    18
100
AcDbLine
 10
400.6
 20
126.0588643844635
 30
0.0
 11
400.6
 21
127.1588643844635
 31
0.0
  0
LINE
  5
270
330
1F
100
AcDbEntity
  8
作業ﾚｲﾔ1
  6
Continuous
 62
     7
370
    18
100
AcDbLine
 10
400.6
 20
127.1588643844635
 30
0.0
 11
399.4
 21
127.1588643844635
 31
0.0
  0
LINE
  5
271
330
1F
100
AcDbEntity
  8
作業ﾚｲﾔ1
  6
Continuous
 62
     7
370
    18
100
AcDbLine
 10
399.4
 20
127.1588643844635
 30
0.0
 11
399.4
 21
126.0588643844635
 31
0.0
  0
TEXT
  5
272
330
1F
100
AcDbEntity
  8
ＰＨ
  6
Continuous
 62
     7
370
    13
100
AcDbText
 10
408.75
 20
345.3525773997146
 30
0.0
 40
1.915708812260537
  1
（Co上1㎝厚マット）
  7
ＭＳ ゴシック
 11
408.75
 21
345.0025
 31
0.0
100
AcDbText
 73
     1
  0
TEXT
  5
273
330
1F
100
AcDbEntity
  8
ＰＨ
  6
Continuous
 62
     7
370
    13
100
AcDbText
 10
408.7499999999999
 20
495.3525773997146
 30
0.0
 40
1.915708812260537
  1
（Co上1㎝厚マット）
  7
ＭＳ ゴシック
 11
408.7499999999999
 21
495.0025
 31
0.0
100
AcDbText
 73
     1
  0
TEXT
  5
274
330
1F
100
AcDbEntity
  8
作業ﾚｲﾔ1
  6
Continuous
 62
     7
370
    13
100
AcDbText
 10
95.81055794316799
 20
121.7412927964438
 30
0.0
 40
1.915708812260537
  1
L=0.50
  7
ＭＳ ゴシック
 72
     1
 11
99.54759151466536
 21
122.6991472025741
 31
0.0
100
AcDbText
 73
     2
  0
ARC
  5
275
330
1F
100
AcDbEntity
  8
作業ﾚｲﾔ1
  6
Continuous
 62
     7
370
    18
100
AcDbCircle
 10
99.32999999999998
 20
277.4449999999999
 30
0.0
 40
0.5
100
AcDbArc
 50
90.0
 51
270.0
  0
HATCH
  5
276
330
1F
100
AcDbEntity
  8
作業ﾚｲﾔ1
  6
Continuous
 62
     7
370
    18
100
AcDbHatch
 10
0.0
 20
0.0
 30
0.0
210
0.0
220
0.0
230
1.0
  2
SOLID
 70
     1
 71
     0
 91
        1
 92
        3
 72
     1
 73
     1
 93
        2
 10
99.32999999999998
 20
277.9449999999999
 42
1.0
 10
99.32999999999998
 20
276.9449999999999
 42
0.0
 97
        0
 75
     0
 76
     1
 98
        0
450
        0
451
        0
460
0.0
461
0.0
452
        1
462
0.0
453
        2
463
0.0
 63
     5
421
      255
463
1.0
 63
   254
421
 13750783
470

  0
LINE
  5
277
330
1F
100
AcDbEntity
  8
作業ﾚｲﾔ1
  6
USER_6
 62
     7
370
    18
100
AcDbLine
 10
96.99000000000001
 20
302.8581713729799
 30
0.0
 11
96.99000000000001
 21
312.8581713729799
 31
0.0
  0
TEXT
  5
278
330
1F
100
AcDbEntity
  8
ＧＨ
  6
Continuous
 62
     7
370
    13
100
AcDbText
 10
94.49864428566843
 20
313.2107487726944
 30
0.0
 40
1.915708812260537
  1
境界
  7
ＭＳ ゴシック
 72
     1
 11
96.99000000000001
 21
312.8606713729799
 31
0.0
100
AcDbText
 73
     1
  0
TEXT
  5
279
330
1F
100
AcDbEntity
  8
作業ﾚｲﾔ1
  6
Continuous
 62
     7
370
    13
100
AcDbText
 10
69.04781716732181
 20
271.9689658203717
 30
0.0
 40
1.915708812260537
  1
L=0.50
  7
ＭＳ ゴシック
 72
     1
 11
72.78485073881917
 21
272.926820226502
 31
0.0
100
AcDbText
 73
     2
  0
ARC
  5
27A
330
1F
100
AcDbEntity
  8
作業ﾚｲﾔ1
  6
Continuous
 62
     7
370
    18
100
AcDbCircle
 10
97.38
 20
277.4449999999999
 30
0.0
 40
0.5
100
AcDbArc
 50
270.0
 51
90.0
  0
HATCH
  5
27B
330
1F
100
AcDbEntity
  8
作業ﾚｲﾔ1
  6
Continuous
 62
     7
370
    18
100
AcDbHatch
 10
0.0
 20
0.0
 30
0.0
210
0.0
220
0.0
230
1.0
  2
SOLID
 70
     1
 71
     0
 91
        1
 92
        3
 72
     1
 73
     1
 93
        2
 10
97.38
 20
276.9449999999999
 42
1.0
 10
97.38
 20
277.9449999999999
 42
0.0
 97
        0
 75
     0
 76
     1
 98
        0
450
        0
451
        0
460
0.0
461
0.0
452
        1
462
0.0
453
        2
463
0.0
 63
     5
421
      255
463
1.0
 63
   254
421
 13750783
470

  0
TEXT
  5
27C
330
1F
100
AcDbEntity
  8
作業ﾚｲﾔ1
  6
Continuous
 62
     7
370
    13
100
AcDbText
 10
53.08435929382428
 20
421.9686750087154
 30
0.0
 40
1.915708812260537
  1
L=0.50
  7
ＭＳ ゴシック
 72
     1
 11
56.82139286532164
 21
422.9265294148456
 31
0.0
100
AcDbText
 73
     2
  0
ARC
  5
27D
330
1F
100
AcDbEntity
  8
作業ﾚｲﾔ1
  6
Continuous
 62
     7
370
    18
100
AcDbCircle
 10
659.27
 20
275.5799999999999
 30
0.0
 40
0.5
100
AcDbArc
 50
270.0
 51
90.0
  0
HATCH
  5
27E
330
1F
100
AcDbEntity
  8
作業ﾚｲﾔ1
  6
Continuous
 62
     7
370
    18
100
AcDbHatch
 10
0.0
 20
0.0
 30
0.0
210
0.0
220
0.0
230
1.0
  2
SOLID
 70
     1
 71
     0
 91
        1
 92
        3
 72
     1
 73
     1
 93
        2
 10
659.27
 20
275.0799999999999
 42
1.0
 10
659.27
 20
276.0799999999999
 42
0.0
 97
        0
 75
     0
 76
     1
 98
        0
450
        0
451
        0
460
0.0
461
0.0
452
        1
462
0.0
453
        2
463
0.0
 63
     5
421
      255
463
1.0
 63
   254
421
 13750783
470

  0
ARC
  5
27F
330
1F
100
AcDbEntity
  8
作業ﾚｲﾔ1
  6
Continuous
 62
     7
370
    18
100
AcDbCircle
 10
661.27
 20
275.5799999999999
 30
0.0
 40
0.5
100
AcDbArc
 50
90.0
 51
270.0
  0
HATCH
  5
280
330
1F
100
AcDbEntity
  8
作業ﾚｲﾔ1
  6
Continuous
 62
     7
370
    18
100
AcDbHatch
 10
0.0
 20
0.0
 30
0.0
210
0.0
220
0.0
230
1.0
  2
SOLID
 70
     1
 71
     0
 91
        1
 92
        3
 72
     1
 73
     1
 93
        2
 10
661.27
 20
276.0799999999999
 42
1.0
 10
661.27
 20
275.0799999999999
 42
0.0
 97
        0
 75
     0
 76
     1
 98
        0
450
        0
451
        0
460
0.0
461
0.0
452
        1
462
0.0
453
        2
463
0.0
 63
     5
421
      255
463
1.0
 63
   254
421
 13750783
470

  0
ARC
  5
281
330
1F
100
AcDbEntity
  8
作業ﾚｲﾔ1
  6
Continuous
 62
     7
370
    18
100
AcDbCircle
 10
81.75
 20
428.2
 30
0.0
 40
0.5
100
AcDbArc
 50
270.0
 51
90.0
  0
HATCH
  5
282
330
1F
100
AcDbEntity
  8
作業ﾚｲﾔ1
  6
Continuous
 62
     7
370
    18
100
AcDbHatch
 10
0.0
 20
0.0
 30
0.0
210
0.0
220
0.0
230
1.0
  2
SOLID
 70
     1
 71
     0
 91
        1
 92
        3
 72
     1
 73
     1
 93
        2
 10
81.75
 20
427.7
 42
1.0
 10
81.75
 20
428.7
 42
0.0
 97
        0
 75
     0
 76
     1
 98
        0
450
        0
451
        0
460
0.0
461
0.0
452
        1
462
0.0
453
        2
463
0.0
 63
     5
421
      255
463
1.0
 63
   254
421
 13750783
470

  0
ARC
  5
283
330
1F
100
AcDbEntity
  8
作業ﾚｲﾔ1
  6
Continuous
 62
     7
370
    18
100
AcDbCircle
 10
145.3
 20
438.22
 30
0.0
 40
0.5
100
AcDbArc
 50
270.0
 51
90.0
  0
HATCH
  5
284
330
1F
100
AcDbEntity
  8
作業ﾚｲﾔ1
  6
Continuous
 62
     7
370
    18
100
AcDbHatch
 10
0.0
 20
0.0
 30
0.0
210
0.0
220
0.0
230
1.0
  2
SOLID
 70
     1
 71
     0
 91
        1
 92
        3
 72
     1
 73
     1
 93
        2
 10
145.3
 20
437.72
 42
1.0
 10
145.3
 20
438.72
 42
0.0
 97
        0
 75
     0
 76
     1
 98
        0
450
        0
451
        0
460
0.0
461
0.0
452
        1
462
0.0
453
        2
463
0.0
 63
     5
421
      255
463
1.0
 63
   254
421
 13750783
470

  0
ARC
  5
285
330
1F
100
AcDbEntity
  8
作業ﾚｲﾔ1
  6
Continuous
 62
     7
370
    18
100
AcDbCircle
 10
83.69999999999999
 20
428.15
 30
0.0
 40
0.5
100
AcDbArc
 50
90.0
 51
270.0
  0
HATCH
  5
286
330
1F
100
AcDbEntity
  8
作業ﾚｲﾔ1
  6
Continuous
 62
     7
370
    18
100
AcDbHatch
 10
0.0
 20
0.0
 30
0.0
210
0.0
220
0.0
230
1.0
  2
SOLID
 70
     1
 71
     0
 91
        1
 92
        3
 72
     1
 73
     1
 93
        2
 10
83.69999999999999
 20
428.65
 42
1.0
 10
83.69999999999999
 20
427.65
 42
0.0
 97
        0
 75
     0
 76
     1
 98
        0
450
        0
451
        0
460
0.0
461
0.0
452
        1
462
0.0
453
        2
463
0.0
 63
     5
421
      255
463
1.0
 63
   254
421
 13750783
470

  0
ARC
  5
287
330
1F
100
AcDbEntity
  8
作業ﾚｲﾔ1
  6
Continuous
 62
     7
370
    18
100
AcDbCircle
 10
147.5
 20
438.22
 30
0.0
 40
0.5
100
AcDbArc
 50
90.0
 51
270.0
  0
HATCH
  5
288
330
1F
100
AcDbEntity
  8
作業ﾚｲﾔ1
  6
Continuous
 62
     7
370
    18
100
AcDbHatch
 10
0.0
 20
0.0
 30
0.0
210
0.0
220
0.0
230
1.0
  2
SOLID
 70
     1
 71
     0
 91
        1
 92
        3
 72
     1
 73
     1
 93
        2
 10
147.5
 20
438.72
 42
1.0
 10
147.5
 20
437.72
 42
0.0
 97
        0
 75
     0
 76
     1
 98
        0
450
        0
451
        0
460
0.0
461
0.0
452
        1
462
0.0
453
        2
463
0.0
 63
     5
421
      255
463
1.0
 63
   254
421
 13750783
470

  0
LINE
  5
289
330
1F
100
AcDbEntity
  8
作業ﾚｲﾔ1
  6
USER_6
 62
     7
370
    18
100
AcDbLine
 10
535.79
 20
298.8524938342564
 30
0.0
 11
535.79
 21
308.8524938342564
 31
0.0
  0
TEXT
  5
28A
330
1F
100
AcDbEntity
  8
ＧＨ
  6
Continuous
 62
     7
370
    13
100
AcDbText
 10
533.2986442856684
 20
309.205071233971
 30
0.0
 40
1.915708812260537
  1
境界
  7
ＭＳ ゴシック
 72
     1
 11
535.79
 21
308.8549938342564
 31
0.0
100
AcDbText
 73
     1
  0
LINE
  5
28B
330
1F
100
AcDbEntity
  8
作業ﾚｲﾔ1
  6
USER_6
 62
     7
370
    18
100
AcDbLine
 10
81.36000000000001
 20
455.0471419250969
 30
0.0
 11
81.36000000000001
 21
465.0471419250969
 31
0.0
  0
TEXT
  5
28C
330
1F
100
AcDbEntity
  8
ＧＨ
  6
Continuous
 62
     7
370
    13
100
AcDbText
 10
78.86864428566844
 20
465.3997193248115
 30
0.0
 40
1.915708812260537
  1
境界
  7
ＭＳ ゴシック
 72
     1
 11
81.36000000000001
 21
465.0496419250969
 31
0.0
100
AcDbText
 73
     1
  0
LINE
  5
28D
330
1F
100
AcDbEntity
  8
作業ﾚｲﾔ1
  6
USER_6
 62
     7
370
    18
100
AcDbLine
 10
535.8
 20
471.4661356867631
 30
0.0
 11
535.8
 21
481.4661356867631
 31
0.0
  0
TEXT
  5
28E
330
1F
100
AcDbEntity
  8
ＧＨ
  6
Continuous
 62
     7
370
    13
100
AcDbText
 10
533.3086442856684
 20
481.8187130864777
 30
0.0
 40
1.915708812260537
  1
境界
  7
ＭＳ ゴシック
 72
     1
 11
535.8
 21
481.4686356867631
 31
0.0
100
AcDbText
 73
     1
  0
LINE
  5
508
330
1F
100
AcDbEntity
  8
ＤＬ線
  6
Continuous
 62
     7
370
    18
100
AcDbLine
 10
1702.0
 20
100.0
 30
0.0
 11
1651.0
 21
100.0
 31
0.0
  0
TEXT
  5
509
330
1F
100
AcDbEntity
  8
ＤＬ値
  6
Continuous
 62
     7
370
    18
100
AcDbText
 10
904.0
 20
101.4936102748119
 30
0.0
 40
2.681992337164751
  1
DL=0.000
  7
ＭＳ ゴシック
 11
904.0
 21
101.0035
 31
0.0
100
AcDbText
 73
     1
  0
LINE
  5
50A
330
1F
100
AcDbEntity
  8
ＤＬ線
  6
Continuous
 62
     7
370
    18
100
AcDbLine
 10
901.0
 20
100.0
 30
0.0
 11
951.0
 21
100.0
 31
0.0
  0
LINE
  5
50B
330
1F
100
AcDbEntity
  8
測点名
  6
Continuous
 62
     7
370
    18
100
AcDbLine
 10
1291.75
 20
200.0
 30
0.0
 11
1310.25
 21
200.0
 31
0.0
  0
LINE
  5
50C
330
1F
100
AcDbEntity
  8
測点名
  6
Continuous
 62
     7
370
    18
100
AcDbLine
 10
1291.75
 20
201.0
 30
0.0
 11
1310.25
 21
201.0
 31
0.0
  0
TEXT
  5
50D
330
1F
100
AcDbEntity
  8
測点名
  6
Continuous
 62
     7
370
    13
100
AcDbText
 10
1294.776377462707
 20
202.7051575354455
 30
0.0
 40
3.831417624521073
  1
BNO.3
  7
ＭＳ ゴシック
 72
     1
 11
1301.0
 21
202.005
 31
0.0
100
AcDbText
 73
     1
  0
LINE
  5
50E
330
1F
100
AcDbEntity
  8
現況線
  6
Continuous
 62
     7
370
    18
100
AcDbLine
 10
1601.0
 20
125.38
 30
0.0
 11
1639.21
 21
124.96
 31
0.0
  0
LINE
  5
50F
330
1F
100
AcDbEntity
  8
現況線
  6
Continuous
 62
     7
370
    18
100
AcDbLine
 10
1562.24
 20
125.83
 30
0.0
 11
1601.0
 21
125.38
 31
0.0
  0
LINE
  5
510
330
1F
100
AcDbEntity
  8
現況線
  6
Continuous
 62
     7
370
    18
100
AcDbLine
 10
1562.24
 20
126.59
 30
0.0
 11
1562.24
 21
125.83
 31
0.0
  0
LINE
  5
511
330
1F
100
AcDbEntity
  8
現況線
  6
Continuous
 62
     7
370
    18
100
AcDbLine
 10
1560.23
 20
126.59
 30
0.0
 11
1562.24
 21
126.59
 31
0.0
  0
LINE
  5
512
330
1F
100
AcDbEntity
  8
現況線
  6
Continuous
 62
     7
370
    18
100
AcDbLine
 10
1560.23
 20
125.79
 30
0.0
 11
1560.23
 21
126.59
 31
0.0
  0
LINE
  5
513
330
1F
100
AcDbEntity
  8
現況線
  6
Continuous
 62
     7
370
    18
100
AcDbLine
 10
1546.81
 20
126.26
 30
0.0
 11
1560.23
 21
125.79
 31
0.0
  0
LINE
  5
514
330
1F
100
AcDbEntity
  8
現況線
  6
Continuous
 62
     7
370
    18
100
AcDbLine
 10
1525.38
 20
138.01
 30
0.0
 11
1546.81
 21
126.26
 31
0.0
  0
LINE
  5
515
330
1F
100
AcDbEntity
  8
現況線
  6
Continuous
 62
     7
370
    18
100
AcDbLine
 10
1514.07
 20
139.87
 30
0.0
 11
1525.38
 21
138.01
 31
0.0
  0
LINE
  5
516
330
1F
100
AcDbEntity
  8
現況線
  6
Continuous
 62
     7
370
    18
100
AcDbLine
 10
1495.76
 20
138.87
 30
0.0
 11
1514.07
 21
139.87
 31
0.0
  0
LINE
  5
517
330
1F
100
AcDbEntity
  8
現況線
  6
Continuous
 62
     7
370
    18
100
AcDbLine
 10
1484.68
 20
138.45
 30
0.0
 11
1495.76
 21
138.87
 31
0.0
  0
LINE
  5
518
330
1F
100
AcDbEntity
  8
現況線
  6
Continuous
 62
     7
370
    18
100
AcDbLine
 10
1483.01
 20
138.31
 30
0.0
 11
1484.68
 21
138.45
 31
0.0
  0
LINE
  5
519
330
1F
100
AcDbEntity
  8
現況線
  6
Continuous
 62
     7
370
    18
100
AcDbLine
 10
1482.86
 20
137.96
 30
0.0
 11
1483.01
 21
138.31
 31
0.0
  0
LINE
  5
51A
330
1F
100
AcDbEntity
  8
現況線
  6
Continuous
 62
     7
370
    18
100
AcDbLine
 10
1471.88
 20
137.36
 30
0.0
 11
1482.86
 21
137.96
 31
0.0
  0
LINE
  5
51B
330
1F
100
AcDbEntity
  8
現況線
  6
Continuous
 62
     7
370
    18
100
AcDbLine
 10
1460.04
 20
137.93
 30
0.0
 11
1471.88
 21
137.36
 31
0.0
  0
LINE
  5
51C
330
1F
100
AcDbEntity
  8
現況線
  6
Continuous
 62
     7
370
    18
100
AcDbLine
 10
1459.84
 20
138.33
 30
0.0
 11
1460.04
 21
137.93
 31
0.0
  0
LINE
  5
51D
330
1F
100
AcDbEntity
  8
現況線
  6
Continuous
 62
     7
370
    18
100
AcDbLine
 10
1458.21
 20
138.37
 30
0.0
 11
1459.84
 21
138.33
 31
0.0
  0
LINE
  5
51E
330
1F
100
AcDbEntity
  8
現況線
  6
Continuous
 62
     7
370
    18
100
AcDbLine
 10
1442.32
 20
138.47
 30
0.0
 11
1458.21
 21
138.37
 31
0.0
  0
LINE
  5
51F
330
1F
100
AcDbEntity
  8
現況線
  6
Continuous
 62
     7
370
    18
100
AcDbLine
 10
1413.49
 20
137.9
 30
0.0
 11
1442.32
 21
138.47
 31
0.0
  0
LINE
  5
520
330
1F
100
AcDbEntity
  8
現況線
  6
Continuous
 62
     7
370
    18
100
AcDbLine
 10
1412.19
 20
137.9
 30
0.0
 11
1413.49
 21
137.9
 31
0.0
  0
LINE
  5
521
330
1F
100
AcDbEntity
  8
現況線
  6
Continuous
 62
     7
370
    18
100
AcDbLine
 10
1410.69
 20
137.9
 30
0.0
 11
1412.19
 21
137.9
 31
0.0
  0
LINE
  5
522
330
1F
100
AcDbEntity
  8
現況線
  6
Continuous
 62
     7
370
    18
100
AcDbLine
 10
1410.49
 20
136.9
 30
0.0
 11
1410.69
 21
137.9
 31
0.0
  0
LINE
  5
523
330
1F
100
AcDbEntity
  8
現況線
  6
Continuous
 62
     7
370
    18
100
AcDbLine
 10
1359.91
 20
135.42
 30
0.0
 11
1410.49
 21
136.9
 31
0.0
  0
LINE
  5
524
330
1F
100
AcDbEntity
  8
現況線
  6
Continuous
 62
     7
370
    18
100
AcDbLine
 10
1359.91
 20
134.5799999999999
 30
0.0
 11
1359.91
 21
135.42
 31
0.0
  0
LINE
  5
525
330
1F
100
AcDbEntity
  8
現況線
  6
Continuous
 62
     7
370
    18
100
AcDbLine
 10
1358.38
 20
134.61
 30
0.0
 11
1359.91
 21
134.58
 31
0.0
  0
LINE
  5
526
330
1F
100
AcDbEntity
  8
現況線
  6
Continuous
 62
     7
370
    18
100
AcDbLine
 10
1358.38
 20
138.0
 30
0.0
 11
1358.38
 21
134.61
 31
0.0
  0
LINE
  5
527
330
1F
100
AcDbEntity
  8
現況線
  6
Continuous
 62
     7
370
    18
100
AcDbLine
 10
1350.62
 20
138.05
 30
0.0
 11
1358.38
 21
138.0
 31
0.0
  0
LINE
  5
528
330
1F
100
AcDbEntity
  8
現況線
  6
Continuous
 62
     7
370
    18
100
AcDbLine
 10
1350.62
 20
124.5599999999999
 30
0.0
 11
1350.62
 21
138.05
 31
0.0
  0
LINE
  5
529
330
1F
100
AcDbEntity
  8
現況線
  6
USER_6
 62
     7
370
    18
100
AcDbLine
 10
1301.0
 20
123.33
 30
0.0
 11
1350.62
 21
124.5599999999999
 31
0.0
  0
LINE
  5
52A
330
1F
100
AcDbEntity
  8
現況線
  6
Continuous
 62
     7
370
    18
100
AcDbLine
 10
943.48
 20
125.13
 30
0.0
 11
938.52
 21
125.45
 31
0.0
  0
LINE
  5
52B
330
1F
100
AcDbEntity
  8
現況線
  6
Continuous
 62
     7
370
    18
100
AcDbLine
 10
943.7
 20
126.59
 30
0.0
 11
943.48
 21
125.13
 31
0.0
  0
LINE
  5
52C
330
1F
100
AcDbEntity
  8
現況線
  6
Continuous
 62
     7
370
    18
100
AcDbLine
 10
945.05
 20
126.59
 30
0.0
 11
943.7
 21
126.59
 31
0.0
  0
LINE
  5
52D
330
1F
100
AcDbEntity
  8
現況線
  6
Continuous
 62
     7
370
    18
100
AcDbLine
 10
946.6800000000001
 20
126.97
 30
0.0
 11
945.0500000000002
 21
126.59
 31
0.0
  0
LINE
  5
52E
330
1F
100
AcDbEntity
  8
現況線
  6
Continuous
 62
     7
370
    18
100
AcDbLine
 10
964.98
 20
127.1800000000001
 30
0.0
 11
946.6799999999998
 21
126.97
 31
0.0
  0
LINE
  5
52F
330
1F
100
AcDbEntity
  8
現況線
  6
Continuous
 62
     7
370
    18
100
AcDbLine
 10
966.8399999999999
 20
127.12
 30
0.0
 11
964.98
 21
127.1800000000001
 31
0.0
  0
LINE
  5
530
330
1F
100
AcDbEntity
  8
現況線
  6
Continuous
 62
     7
370
    18
100
AcDbLine
 10
966.8399999999999
 20
128.8199999999999
 30
0.0
 11
966.8399999999999
 21
127.12
 31
0.0
  0
LINE
  5
531
330
1F
100
AcDbEntity
  8
現況線
  6
Continuous
 62
     7
370
    18
100
AcDbLine
 10
972.74
 20
128.97
 30
0.0
 11
966.8400000000001
 21
128.8199999999999
 31
0.0
  0
LINE
  5
532
330
1F
100
AcDbEntity
  8
現況線
  6
Continuous
 62
     7
370
    18
100
AcDbLine
 10
976.8299999999999
 20
128.86
 30
0.0
 11
972.74
 21
128.97
 31
0.0
  0
LINE
  5
533
330
1F
100
AcDbEntity
  8
現況線
  6
Continuous
 62
     7
370
    18
100
AcDbLine
 10
977.8299999999999
 20
128.86
 30
0.0
 11
976.8299999999999
 21
128.86
 31
0.0
  0
LINE
  5
534
330
1F
100
AcDbEntity
  8
現況線
  6
Continuous
 62
     7
370
    18
100
AcDbLine
 10
977.8299999999999
 20
126.66
 30
0.0
 11
977.8299999999999
 21
128.86
 31
0.0
  0
LINE
  5
535
330
1F
100
AcDbEntity
  8
現況線
  6
Continuous
 62
     7
370
    18
100
AcDbLine
 10
993.5699999999999
 20
126.13
 30
0.0
 11
977.8299999999999
 21
126.66
 31
0.0
  0
LINE
  5
536
330
1F
100
AcDbEntity
  8
現況線
  6
Continuous
 62
     7
370
    18
100
AcDbLine
 10
1018.12
 20
128.51
 30
0.0
 11
993.5700000000002
 21
126.13
 31
0.0
  0
LINE
  5
537
330
1F
100
AcDbEntity
  8
現況線
  6
Continuous
 62
     7
370
    18
100
AcDbLine
 10
1041.59
 20
136.58
 30
0.0
 11
1018.12
 21
128.51
 31
0.0
  0
LINE
  5
538
330
1F
100
AcDbEntity
  8
現況線
  6
Continuous
 62
     7
370
    18
100
AcDbLine
 10
1047.63
 20
137.91
 30
0.0
 11
1041.59
 21
136.58
 31
0.0
  0
LINE
  5
539
330
1F
100
AcDbEntity
  8
現況線
  6
Continuous
 62
     7
370
    18
100
AcDbLine
 10
1049.13
 20
137.91
 30
0.0
 11
1047.63
 21
137.91
 31
0.0
  0
LINE
  5
53A
330
1F
100
AcDbEntity
  8
現況線
  6
Continuous
 62
     7
370
    18
100
AcDbLine
 10
1049.37
 20
137.24
 30
0.0
 11
1049.13
 21
137.91
 31
0.0
  0
LINE
  5
53B
330
1F
100
AcDbEntity
  8
現況線
  6
Continuous
 62
     7
370
    18
100
AcDbLine
 10
1091.86
 20
135.63
 30
0.0
 11
1049.37
 21
137.24
 31
0.0
  0
LINE
  5
53C
330
1F
100
AcDbEntity
  8
現況線
  6
Continuous
 62
     7
370
    18
100
AcDbLine
 10
1091.86
 20
134.55
 30
0.0
 11
1091.86
 21
135.63
 31
0.0
  0
LINE
  5
53D
330
1F
100
AcDbEntity
  8
現況線
  6
Continuous
 62
     7
370
    18
100
AcDbLine
 10
1093.25
 20
134.64
 30
0.0
 11
1091.86
 21
134.55
 31
0.0
  0
LINE
  5
53E
330
1F
100
AcDbEntity
  8
現況線
  6
Continuous
 62
     7
370
    18
100
AcDbLine
 10
1093.25
 20
138.02
 30
0.0
 11
1093.25
 21
134.64
 31
0.0
  0
LINE
  5
53F
330
1F
100
AcDbEntity
  8
現況線
  6
Continuous
 62
     7
370
    18
100
AcDbLine
 10
1100.8
 20
138.06
 30
0.0
 11
1093.25
 21
138.02
 31
0.0
  0
LINE
  5
540
330
1F
100
AcDbEntity
  8
現況線
  6
Continuous
 62
     7
370
    18
100
AcDbLine
 10
1100.8
 20
124.8
 30
0.0
 11
1100.8
 21
138.06
 31
0.0
  0
LINE
  5
541
330
1F
100
AcDbEntity
  8
現況線
  6
USER_6
 62
     7
370
    18
100
AcDbLine
 10
1301.0
 20
123.33
 30
0.0
 11
1100.8
 21
124.8
 31
0.0
  0
LINE
  5
542
330
1F
100
AcDbEntity
  8
中心線
  6
chain
 62
     7
370
    18
100
AcDbLine
 10
1301.0
 20
103.33
 30
0.0
 11
1301.0
 21
143.33
 31
0.0
  0
LINE
  5
543
330
1F
100
AcDbEntity
  8
ＤＬ線
  6
Continuous
 62
     7
370
    18
100
AcDbLine
 10
1702.0
 20
250.0
 30
0.0
 11
1651.0
 21
250.0
 31
0.0
  0
TEXT
  5
544
330
1F
100
AcDbEntity
  8
ＤＬ値
  6
Continuous
 62
     7
370
    18
100
AcDbText
 10
904.0
 20
251.4936102748119
 30
0.0
 40
2.681992337164751
  1
DL=0.000
  7
ＭＳ ゴシック
 11
904.0
 21
251.0035
 31
0.0
100
AcDbText
 73
     1
  0
LINE
  5
545
330
1F
100
AcDbEntity
  8
ＤＬ線
  6
Continuous
 62
     7
370
    18
100
AcDbLine
 10
901.0
 20
250.0
 30
0.0
 11
951.0
 21
250.0
 31
0.0
  0
LINE
  5
546
330
1F
100
AcDbEntity
  8
測点名
  6
Continuous
 62
     7
370
    18
100
AcDbLine
 10
1291.75
 20
350.0
 30
0.0
 11
1310.25
 21
350.0
 31
0.0
  0
LINE
  5
547
330
1F
100
AcDbEntity
  8
測点名
  6
Continuous
 62
     7
370
    18
100
AcDbLine
 10
1291.75
 20
351.0
 30
0.0
 11
1310.25
 21
351.0
 31
0.0
  0
TEXT
  5
548
330
1F
100
AcDbEntity
  8
測点名
  6
Continuous
 62
     7
370
    13
100
AcDbText
 10
1294.776377462707
 20
352.7051575354455
 30
0.0
 40
3.831417624521073
  1
BNO.4
  7
ＭＳ ゴシック
 72
     1
 11
1301.0
 21
352.005
 31
0.0
100
AcDbText
 73
     1
  0
LINE
  5
549
330
1F
100
AcDbEntity
  8
現況線
  6
Continuous
 62
     7
370
    18
100
AcDbLine
 10
1601.0
 20
275.34
 30
0.0
 11
1634.48
 21
275.01
 31
0.0
  0
LINE
  5
54A
330
1F
100
AcDbEntity
  8
現況線
  6
Continuous
 62
     7
370
    18
100
AcDbLine
 10
1561.96
 20
275.8
 30
0.0
 11
1601.0
 21
275.34
 31
0.0
  0
LINE
  5
54B
330
1F
100
AcDbEntity
  8
現況線
  6
Continuous
 62
     7
370
    18
100
AcDbLine
 10
1558.98
 20
275.8
 30
0.0
 11
1561.96
 21
275.8
 31
0.0
  0
LINE
  5
54C
330
1F
100
AcDbEntity
  8
現況線
  6
Continuous
 62
     7
370
    18
100
AcDbLine
 10
1558.98
 20
276.19
 30
0.0
 11
1558.98
 21
275.8
 31
0.0
  0
LINE
  5
54D
330
1F
100
AcDbEntity
  8
現況線
  6
Continuous
 62
     7
370
    18
100
AcDbLine
 10
1551.15
 20
276.21
 30
0.0
 11
1558.98
 21
276.19
 31
0.0
  0
LINE
  5
54E
330
1F
100
AcDbEntity
  8
現況線
  6
Continuous
 62
     7
370
    18
100
AcDbLine
 10
1551.05
 20
276.64
 30
0.0
 11
1551.15
 21
276.21
 31
0.0
  0
LINE
  5
54F
330
1F
100
AcDbEntity
  8
現況線
  6
Continuous
 62
     7
370
    18
100
AcDbLine
 10
1546.97
 20
278.97
 30
0.0
 11
1551.05
 21
276.64
 31
0.0
  0
LINE
  5
550
330
1F
100
AcDbEntity
  8
現況線
  6
Continuous
 62
     7
370
    18
100
AcDbLine
 10
1526.53
 20
288.31
 30
0.0
 11
1546.97
 21
278.97
 31
0.0
  0
LINE
  5
551
330
1F
100
AcDbEntity
  8
現況線
  6
Continuous
 62
     7
370
    18
100
AcDbLine
 10
1518.12
 20
288.27
 30
0.0
 11
1526.53
 21
288.31
 31
0.0
  0
LINE
  5
552
330
1F
100
AcDbEntity
  8
現況線
  6
Continuous
 62
     7
370
    18
100
AcDbLine
 10
1517.77
 20
287.44
 30
0.0
 11
1518.12
 21
288.27
 31
0.0
  0
LINE
  5
553
330
1F
100
AcDbEntity
  8
現況線
  6
Continuous
 62
     7
370
    18
100
AcDbLine
 10
1507.98
 20
287.92
 30
0.0
 11
1517.77
 21
287.44
 31
0.0
  0
LINE
  5
554
330
1F
100
AcDbEntity
  8
現況線
  6
Continuous
 62
     7
370
    18
100
AcDbLine
 10
1481.47
 20
287.74
 30
0.0
 11
1507.98
 21
287.92
 31
0.0
  0
LINE
  5
555
330
1F
100
AcDbEntity
  8
現況線
  6
Continuous
 62
     7
370
    18
100
AcDbLine
 10
1479.38
 20
287.82
 30
0.0
 11
1481.47
 21
287.74
 31
0.0
  0
LINE
  5
556
330
1F
100
AcDbEntity
  8
現況線
  6
Continuous
 62
     7
370
    18
100
AcDbLine
 10
1473.22
 20
288.6
 30
0.0
 11
1479.38
 21
287.82
 31
0.0
  0
LINE
  5
557
330
1F
100
AcDbEntity
  8
現況線
  6
Continuous
 62
     7
370
    18
100
AcDbLine
 10
1446.85
 20
289.0
 30
0.0
 11
1473.22
 21
288.6
 31
0.0
  0
LINE
  5
558
330
1F
100
AcDbEntity
  8
現況線
  6
Continuous
 62
     7
370
    18
100
AcDbLine
 10
1434.43
 20
287.51
 30
0.0
 11
1446.85
 21
289.0
 31
0.0
  0
LINE
  5
559
330
1F
100
AcDbEntity
  8
現況線
  6
Continuous
 62
     7
370
    18
100
AcDbLine
 10
1421.13
 20
287.76
 30
0.0
 11
1434.43
 21
287.51
 31
0.0
  0
LINE
  5
55A
330
1F
100
AcDbEntity
  8
現況線
  6
Continuous
 62
     7
370
    18
100
AcDbLine
 10
1420.86
 20
288.17
 30
0.0
 11
1421.13
 21
287.76
 31
0.0
  0
LINE
  5
55B
330
1F
100
AcDbEntity
  8
現況線
  6
Continuous
 62
     7
370
    18
100
AcDbLine
 10
1416.59
 20
288.34
 30
0.0
 11
1420.86
 21
288.17
 31
0.0
  0
LINE
  5
55C
330
1F
100
AcDbEntity
  8
現況線
  6
Continuous
 62
     7
370
    18
100
AcDbLine
 10
1416.59
 20
288.09
 30
0.0
 11
1416.59
 21
288.34
 31
0.0
  0
LINE
  5
55D
330
1F
100
AcDbEntity
  8
現況線
  6
Continuous
 62
     7
370
    18
100
AcDbLine
 10
1414.13
 20
288.35
 30
0.0
 11
1416.59
 21
288.09
 31
0.0
  0
LINE
  5
55E
330
1F
100
AcDbEntity
  8
現況線
  6
Continuous
 62
     7
370
    18
100
AcDbLine
 10
1412.83
 20
288.35
 30
0.0
 11
1414.13
 21
288.35
 31
0.0
  0
LINE
  5
55F
330
1F
100
AcDbEntity
  8
現況線
  6
Continuous
 62
     7
370
    18
100
AcDbLine
 10
1411.4
 20
288.26
 30
0.0
 11
1412.83
 21
288.35
 31
0.0
  0
LINE
  5
560
330
1F
100
AcDbEntity
  8
現況線
  6
Continuous
 62
     7
370
    18
100
AcDbLine
 10
1411.28
 20
287.34
 30
0.0
 11
1411.4
 21
288.26
 31
0.0
  0
LINE
  5
561
330
1F
100
AcDbEntity
  8
現況線
  6
Continuous
 62
     7
370
    18
100
AcDbLine
 10
1360.32
 20
285.6
 30
0.0
 11
1411.28
 21
287.34
 31
0.0
  0
LINE
  5
562
330
1F
100
AcDbEntity
  8
現況線
  6
Continuous
 62
     7
370
    18
100
AcDbLine
 10
1360.32
 20
284.68
 30
0.0
 11
1360.32
 21
285.6
 31
0.0
  0
LINE
  5
563
330
1F
100
AcDbEntity
  8
現況線
  6
Continuous
 62
     7
370
    18
100
AcDbLine
 10
1358.93
 20
284.68
 30
0.0
 11
1360.32
 21
284.68
 31
0.0
  0
LINE
  5
564
330
1F
100
AcDbEntity
  8
現況線
  6
Continuous
 62
     7
370
    18
100
AcDbLine
 10
1358.93
 20
288.12
 30
0.0
 11
1358.93
 21
284.68
 31
0.0
  0
LINE
  5
565
330
1F
100
AcDbEntity
  8
現況線
  6
Continuous
 62
     7
370
    18
100
AcDbLine
 10
1351.15
 20
288.22
 30
0.0
 11
1358.93
 21
288.12
 31
0.0
  0
LINE
  5
566
330
1F
100
AcDbEntity
  8
現況線
  6
Continuous
 62
     7
370
    18
100
AcDbLine
 10
1351.15
 20
274.93
 30
0.0
 11
1351.15
 21
288.22
 31
0.0
  0
LINE
  5
567
330
1F
100
AcDbEntity
  8
現況線
  6
USER_6
 62
     7
370
    18
100
AcDbLine
 10
1301.0
 20
273.73
 30
0.0
 11
1351.15
 21
274.93
 31
0.0
  0
LINE
  5
568
330
1F
100
AcDbEntity
  8
現況線
  6
Continuous
 62
     7
370
    18
100
AcDbLine
 10
927.52
 20
275.49
 30
0.0
 11
922.6700000000001
 21
275.59
 31
0.0
  0
LINE
  5
569
330
1F
100
AcDbEntity
  8
現況線
  6
Continuous
 62
     7
370
    18
100
AcDbLine
 10
927.6199999999999
 20
276.94
 30
0.0
 11
927.52
 21
275.49
 31
0.0
  0
LINE
  5
56A
330
1F
100
AcDbEntity
  8
現況線
  6
Continuous
 62
     7
370
    18
100
AcDbLine
 10
929.1300000000001
 20
276.94
 30
0.0
 11
927.6199999999999
 21
276.94
 31
0.0
  0
LINE
  5
56B
330
1F
100
AcDbEntity
  8
現況線
  6
Continuous
 62
     7
370
    18
100
AcDbLine
 10
930.8800000000001
 20
276.94
 30
0.0
 11
929.1300000000001
 21
276.94
 31
0.0
  0
LINE
  5
56C
330
1F
100
AcDbEntity
  8
現況線
  6
Continuous
 62
     7
370
    18
100
AcDbLine
 10
940.55
 20
277.09
 30
0.0
 11
930.8800000000001
 21
276.94
 31
0.0
  0
LINE
  5
56D
330
1F
100
AcDbEntity
  8
現況線
  6
Continuous
 62
     7
370
    18
100
AcDbLine
 10
949.0899999999999
 20
276.71
 30
0.0
 11
940.55
 21
277.09
 31
0.0
  0
LINE
  5
56E
330
1F
100
AcDbEntity
  8
現況線
  6
Continuous
 62
     7
370
    18
100
AcDbLine
 10
950.6100000000001
 20
276.86
 30
0.0
 11
949.0900000000001
 21
276.71
 31
0.0
  0
LINE
  5
56F
330
1F
100
AcDbEntity
  8
現況線
  6
Continuous
 62
     7
370
    18
100
AcDbLine
 10
950.6100000000001
 20
278.49
 30
0.0
 11
950.6100000000001
 21
276.86
 31
0.0
  0
LINE
  5
570
330
1F
100
AcDbEntity
  8
現況線
  6
Continuous
 62
     7
370
    18
100
AcDbLine
 10
951.5999999999999
 20
278.49
 30
0.0
 11
950.6100000000001
 21
278.49
 31
0.0
  0
LINE
  5
571
330
1F
100
AcDbEntity
  8
現況線
  6
Continuous
 62
     7
370
    18
100
AcDbLine
 10
952.5799999999999
 20
278.49
 30
0.0
 11
951.5999999999999
 21
278.49
 31
0.0
  0
LINE
  5
572
330
1F
100
AcDbEntity
  8
現況線
  6
Continuous
 62
     7
370
    18
100
AcDbLine
 10
952.5799999999999
 20
276.79
 30
0.0
 11
952.5799999999999
 21
278.49
 31
0.0
  0
LINE
  5
573
330
1F
100
AcDbEntity
  8
現況線
  6
Continuous
 62
     7
370
    18
100
AcDbLine
 10
987.23
 20
276.38
 30
0.0
 11
952.5799999999999
 21
276.79
 31
0.0
  0
LINE
  5
574
330
1F
100
AcDbEntity
  8
現況線
  6
Continuous
 62
     7
370
    18
100
AcDbLine
 10
1022.17
 20
276.16
 30
0.0
 11
987.23
 21
276.38
 31
0.0
  0
LINE
  5
575
330
1F
100
AcDbEntity
  8
現況線
  6
Continuous
 62
     7
370
    18
100
AcDbLine
 10
1041.4
 20
287.63
 30
0.0
 11
1022.17
 21
276.16
 31
0.0
  0
LINE
  5
576
330
1F
100
AcDbEntity
  8
現況線
  6
Continuous
 62
     7
370
    18
100
AcDbLine
 10
1048.87
 20
288.29
 30
0.0
 11
1041.4
 21
287.63
 31
0.0
  0
LINE
  5
577
330
1F
100
AcDbEntity
  8
現況線
  6
Continuous
 62
     7
370
    18
100
AcDbLine
 10
1050.22
 20
288.44
 30
0.0
 11
1048.87
 21
288.29
 31
0.0
  0
LINE
  5
578
330
1F
100
AcDbEntity
  8
現況線
  6
Continuous
 62
     7
370
    18
100
AcDbLine
 10
1050.46
 20
287.4
 30
0.0
 11
1050.22
 21
288.44
 31
0.0
  0
LINE
  5
579
330
1F
100
AcDbEntity
  8
現況線
  6
Continuous
 62
     7
370
    18
100
AcDbLine
 10
1092.41
 20
285.71
 30
0.0
 11
1050.46
 21
287.4
 31
0.0
  0
LINE
  5
57A
330
1F
100
AcDbEntity
  8
現況線
  6
Continuous
 62
     7
370
    18
100
AcDbLine
 10
1092.41
 20
284.83
 30
0.0
 11
1092.41
 21
285.71
 31
0.0
  0
LINE
  5
57B
330
1F
100
AcDbEntity
  8
現況線
  6
Continuous
 62
     7
370
    18
100
AcDbLine
 10
1093.76
 20
284.82
 30
0.0
 11
1092.41
 21
284.83
 31
0.0
  0
LINE
  5
57C
330
1F
100
AcDbEntity
  8
現況線
  6
Continuous
 62
     7
370
    18
100
AcDbLine
 10
1093.76
 20
288.13
 30
0.0
 11
1093.76
 21
284.82
 31
0.0
  0
LINE
  5
57D
330
1F
100
AcDbEntity
  8
現況線
  6
Continuous
 62
     7
370
    18
100
AcDbLine
 10
1101.38
 20
288.14
 30
0.0
 11
1093.76
 21
288.13
 31
0.0
  0
LINE
  5
57E
330
1F
100
AcDbEntity
  8
現況線
  6
Continuous
 62
     7
370
    18
100
AcDbLine
 10
1101.38
 20
274.99
 30
0.0
 11
1101.38
 21
288.14
 31
0.0
  0
LINE
  5
57F
330
1F
100
AcDbEntity
  8
現況線
  6
USER_6
 62
     7
370
    18
100
AcDbLine
 10
1301.0
 20
273.73
 30
0.0
 11
1101.38
 21
274.99
 31
0.0
  0
LINE
  5
580
330
1F
100
AcDbEntity
  8
中心線
  6
chain
 62
     7
370
    18
100
AcDbLine
 10
1301.0
 20
253.73
 30
0.0
 11
1301.0
 21
293.73
 31
0.0
  0
LINE
  5
581
330
1F
100
AcDbEntity
  8
ＤＬ線
  6
Continuous
 62
     7
370
    18
100
AcDbLine
 10
1702.0
 20
400.0
 30
0.0
 11
1651.0
 21
400.0
 31
0.0
  0
TEXT
  5
582
330
1F
100
AcDbEntity
  8
ＤＬ値
  6
Continuous
 62
     7
370
    18
100
AcDbText
 10
904.0
 20
401.4936102748118
 30
0.0
 40
2.681992337164751
  1
DL=0.000
  7
ＭＳ ゴシック
 11
904.0
 21
401.0035
 31
0.0
100
AcDbText
 73
     1
  0
LINE
  5
583
330
1F
100
AcDbEntity
  8
ＤＬ線
  6
Continuous
 62
     7
370
    18
100
AcDbLine
 10
901.0
 20
400.0
 30
0.0
 11
951.0
 21
400.0
 31
0.0
  0
LINE
  5
584
330
1F
100
AcDbEntity
  8
測点名
  6
Continuous
 62
     7
370
    18
100
AcDbLine
 10
1291.75
 20
500.0
 30
0.0
 11
1310.25
 21
500.0
 31
0.0
  0
LINE
  5
585
330
1F
100
AcDbEntity
  8
測点名
  6
Continuous
 62
     7
370
    18
100
AcDbLine
 10
1291.75
 20
501.0
 30
0.0
 11
1310.25
 21
501.0
 31
0.0
  0
TEXT
  5
586
330
1F
100
AcDbEntity
  8
測点名
  6
Continuous
 62
     7
370
    13
100
AcDbText
 10
1294.776377462707
 20
502.7051575354455
 30
0.0
 40
3.831417624521073
  1
BNO.5
  7
ＭＳ ゴシック
 72
     1
 11
1301.0
 21
502.005
 31
0.0
100
AcDbText
 73
     1
  0
LINE
  5
587
330
1F
100
AcDbEntity
  8
現況線
  6
Continuous
 62
     7
370
    18
100
AcDbLine
 10
1625.08
 20
425.55
 30
0.0
 11
1631.26
 21
425.33
 31
0.0
  0
LINE
  5
588
330
1F
100
AcDbEntity
  8
現況線
  6
Continuous
 62
     7
370
    18
100
AcDbLine
 10
1623.26
 20
425.54
 30
0.0
 11
1625.08
 21
425.55
 31
0.0
  0
LINE
  5
589
330
1F
100
AcDbEntity
  8
現況線
  6
Continuous
 62
     7
370
    18
100
AcDbLine
 10
1623.15
 20
424.72
 30
0.0
 11
1623.26
 21
425.54
 31
0.0
  0
LINE
  5
58A
330
1F
100
AcDbEntity
  8
現況線
  6
Continuous
 62
     7
370
    18
100
AcDbLine
 10
1618.53
 20
424.73
 30
0.0
 11
1623.15
 21
424.72
 31
0.0
  0
LINE
  5
58B
330
1F
100
AcDbEntity
  8
現況線
  6
Continuous
 62
     7
370
    18
100
AcDbLine
 10
1601.0
 20
425.24
 30
0.0
 11
1618.53
 21
424.73
 31
0.0
  0
LINE
  5
58C
330
1F
100
AcDbEntity
  8
現況線
  6
Continuous
 62
     7
370
    18
100
AcDbLine
 10
1562.47
 20
426.0
 30
0.0
 11
1601.0
 21
425.24
 31
0.0
  0
LINE
  5
58D
330
1F
100
AcDbEntity
  8
現況線
  6
Continuous
 62
     7
370
    18
100
AcDbLine
 10
1562.47
 20
426.7
 30
0.0
 11
1562.47
 21
426.0
 31
0.0
  0
LINE
  5
58E
330
1F
100
AcDbEntity
  8
現況線
  6
Continuous
 62
     7
370
    18
100
AcDbLine
 10
1560.4
 20
426.71
 30
0.0
 11
1562.47
 21
426.7
 31
0.0
  0
LINE
  5
58F
330
1F
100
AcDbEntity
  8
現況線
  6
Continuous
 62
     7
370
    18
100
AcDbLine
 10
1560.4
 20
425.86
 30
0.0
 11
1560.4
 21
426.71
 31
0.0
  0
LINE
  5
590
330
1F
100
AcDbEntity
  8
現況線
  6
Continuous
 62
     7
370
    18
100
AcDbLine
 10
1543.13
 20
426.17
 30
0.0
 11
1560.4
 21
425.86
 31
0.0
  0
LINE
  5
591
330
1F
100
AcDbEntity
  8
現況線
  6
Continuous
 62
     7
370
    18
100
AcDbLine
 10
1530.39
 20
428.19
 30
0.0
 11
1543.13
 21
426.17
 31
0.0
  0
LINE
  5
592
330
1F
100
AcDbEntity
  8
現況線
  6
Continuous
 62
     7
370
    18
100
AcDbLine
 10
1522.36
 20
429.47
 30
0.0
 11
1530.39
 21
428.19
 31
0.0
  0
LINE
  5
593
330
1F
100
AcDbEntity
  8
現況線
  6
Continuous
 62
     7
370
    18
100
AcDbLine
 10
1498.21
 20
429.36
 30
0.0
 11
1522.36
 21
429.47
 31
0.0
  0
LINE
  5
594
330
1F
100
AcDbEntity
  8
現況線
  6
Continuous
 62
     7
370
    18
100
AcDbLine
 10
1490.42
 20
429.98
 30
0.0
 11
1498.21
 21
429.36
 31
0.0
  0
LINE
  5
595
330
1F
100
AcDbEntity
  8
現況線
  6
Continuous
 62
     7
370
    18
100
AcDbLine
 10
1458.73
 20
429.05
 30
0.0
 11
1490.42
 21
429.98
 31
0.0
  0
LINE
  5
596
330
1F
100
AcDbEntity
  8
現況線
  6
Continuous
 62
     7
370
    18
100
AcDbLine
 10
1450.35
 20
430.04
 30
0.0
 11
1458.73
 21
429.05
 31
0.0
  0
LINE
  5
597
330
1F
100
AcDbEntity
  8
現況線
  6
Continuous
 62
     7
370
    18
100
AcDbLine
 10
1426.49
 20
429.35
 30
0.0
 11
1450.35
 21
430.04
 31
0.0
  0
LINE
  5
598
330
1F
100
AcDbEntity
  8
現況線
  6
Continuous
 62
     7
370
    18
100
AcDbLine
 10
1414.85
 20
429.58
 30
0.0
 11
1426.49
 21
429.35
 31
0.0
  0
LINE
  5
599
330
1F
100
AcDbEntity
  8
現況線
  6
Continuous
 62
     7
370
    18
100
AcDbLine
 10
1413.04
 20
429.96
 30
0.0
 11
1414.85
 21
429.58
 31
0.0
  0
LINE
  5
59A
330
1F
100
AcDbEntity
  8
現況線
  6
Continuous
 62
     7
370
    18
100
AcDbLine
 10
1397.01
 20
429.52
 30
0.0
 11
1413.04
 21
429.96
 31
0.0
  0
LINE
  5
59B
330
1F
100
AcDbEntity
  8
現況線
  6
Continuous
 62
     7
370
    18
100
AcDbLine
 10
1353.6
 20
429.3
 30
0.0
 11
1397.01
 21
429.52
 31
0.0
  0
LINE
  5
59C
330
1F
100
AcDbEntity
  8
現況線
  6
Continuous
 62
     7
370
    18
100
AcDbLine
 10
1301.0
 20
429.8
 30
0.0
 11
1353.6
 21
429.3
 31
0.0
  0
LINE
  5
59D
330
1F
100
AcDbEntity
  8
現況線
  6
Continuous
 62
     7
370
    18
100
AcDbLine
 10
916.47
 20
426.71
 30
0.0
 11
915.06
 21
426.83
 31
0.0
  0
LINE
  5
59E
330
1F
100
AcDbEntity
  8
現況線
  6
Continuous
 62
     7
370
    18
100
AcDbLine
 10
933.1100000000001
 20
426.51
 30
0.0
 11
916.47
 21
426.71
 31
0.0
  0
LINE
  5
59F
330
1F
100
AcDbEntity
  8
現況線
  6
Continuous
 62
     7
370
    18
100
AcDbLine
 10
934.81
 20
426.57
 30
0.0
 11
933.1100000000001
 21
426.51
 31
0.0
  0
LINE
  5
5A0
330
1F
100
AcDbEntity
  8
現況線
  6
Continuous
 62
     7
370
    18
100
AcDbLine
 10
934.81
 20
428.33
 30
0.0
 11
934.81
 21
426.57
 31
0.0
  0
LINE
  5
5A1
330
1F
100
AcDbEntity
  8
現況線
  6
Continuous
 62
     7
370
    18
100
AcDbLine
 10
935.77
 20
428.33
 30
0.0
 11
934.81
 21
428.33
 31
0.0
  0
LINE
  5
5A2
330
1F
100
AcDbEntity
  8
現況線
  6
Continuous
 62
     7
370
    18
100
AcDbLine
 10
936.73
 20
428.33
 30
0.0
 11
935.77
 21
428.33
 31
0.0
  0
LINE
  5
5A3
330
1F
100
AcDbEntity
  8
現況線
  6
Continuous
 62
     7
370
    18
100
AcDbLine
 10
936.73
 20
426.93
 30
0.0
 11
936.73
 21
428.33
 31
0.0
  0
LINE
  5
5A4
330
1F
100
AcDbEntity
  8
現況線
  6
Continuous
 62
     7
370
    18
100
AcDbLine
 10
969.06
 20
426.53
 30
0.0
 11
936.73
 21
426.93
 31
0.0
  0
LINE
  5
5A5
330
1F
100
AcDbEntity
  8
現況線
  6
Continuous
 62
     7
370
    18
100
AcDbLine
 10
1026.31
 20
427.06
 30
0.0
 11
969.06
 21
426.53
 31
0.0
  0
LINE
  5
5A6
330
1F
100
AcDbEntity
  8
現況線
  6
Continuous
 62
     7
370
    18
100
AcDbLine
 10
1034.61
 20
429.75
 30
0.0
 11
1026.31
 21
427.06
 31
0.0
  0
LINE
  5
5A7
330
1F
100
AcDbEntity
  8
現況線
  6
Continuous
 62
     7
370
    18
100
AcDbLine
 10
1076.28
 20
429.55
 30
0.0
 11
1034.61
 21
429.75
 31
0.0
  0
LINE
  5
5A8
330
1F
100
AcDbEntity
  8
現況線
  6
Continuous
 62
     7
370
    18
100
AcDbLine
 10
1162.5
 20
430.95
 30
0.0
 11
1076.28
 21
429.55
 31
0.0
  0
LINE
  5
5A9
330
1F
100
AcDbEntity
  8
現況線
  6
Continuous
 62
     7
370
    18
100
AcDbLine
 10
1252.86
 20
428.72
 30
0.0
 11
1162.5
 21
430.95
 31
0.0
  0
LINE
  5
5AA
330
1F
100
AcDbEntity
  8
現況線
  6
Continuous
 62
     7
370
    18
100
AcDbLine
 10
1301.0
 20
429.8
 30
0.0
 11
1252.86
 21
428.72
 31
0.0
  0
LINE
  5
5AB
330
1F
100
AcDbEntity
  8
中心線
  6
chain
 62
     7
370
    18
100
AcDbLine
 10
1301.0
 20
409.8
 30
0.0
 11
1301.0
 21
449.8
 31
0.0
  0
TEXT
  5
5AC
330
1F
100
AcDbEntity
  8
ＧＨ
  6
Continuous
 62
     7
370
    13
100
AcDbText
 10
1301.0
 20
192.3525787677227
 30
0.0
 40
1.915708812260537
  1
GH=2.33
  7
ＭＳ ゴシック
 11
1301.0
 21
192.0025
 31
0.0
100
AcDbText
 73
     1
  0
TEXT
  5
5AD
330
1F
100
AcDbEntity
  8
ＰＨ
  6
Continuous
 62
     7
370
    13
100
AcDbText
 10
1301.0
 20
195.3525787677227
 30
0.0
 40
1.915708812260537
  1
PH=
  7
ＭＳ ゴシック
 11
1301.0
 21
195.0025
 31
0.0
100
AcDbText
 73
     1
  0
TEXT
  5
5AE
330
1F
100
AcDbEntity
  8
ＧＨ
  6
Continuous
 62
     7
370
    13
100
AcDbText
 10
1301.0
 20
342.3525787677227
 30
0.0
 40
1.915708812260537
  1
GH=2.37
  7
ＭＳ ゴシック
 11
1301.0
 21
342.0025
 31
0.0
100
AcDbText
 73
     1
  0
TEXT
  5
5AF
330
1F
100
AcDbEntity
  8
ＰＨ
  6
Continuous
 62
     7
370
    13
100
AcDbText
 10
1301.0
 20
345.3525787677227
 30
0.0
 40
1.915708812260537
  1
PH=
  7
ＭＳ ゴシック
 11
1301.0
 21
345.0025
 31
0.0
100
AcDbText
 73
     1
  0
TEXT
  5
5B0
330
1F
100
AcDbEntity
  8
ＧＨ
  6
Continuous
 62
     7
370
    13
100
AcDbText
 10
1301.0
 20
492.3525787677227
 30
0.0
 40
1.915708812260537
  1
GH=2.98
  7
ＭＳ ゴシック
 11
1301.0
 21
492.0025
 31
0.0
100
AcDbText
 73
     1
  0
TEXT
  5
5B1
330
1F
100
AcDbEntity
  8
ＰＨ
  6
Continuous
 62
     7
370
    13
100
AcDbText
 10
1301.0
 20
495.3525787677227
 30
0.0
 40
1.915708812260537
  1
PH=3.10
  7
ＭＳ ゴシック
 11
1301.0
 21
495.0025
 31
0.0
100
AcDbText
 73
     1
  0
LINE
  5
5B2
330
1F
100
AcDbEntity
  8
作業ﾚｲﾔ1
  6
USER_6
 62
     7
370
    18
100
AcDbLine
 10
1517.77
 20
287.44
 30
0.0
 11
1519.1
 21
286.88
 31
0.0
  0
LINE
  5
5B3
330
1F
100
AcDbEntity
  8
作業ﾚｲﾔ1
  6
USER_6
 62
     7
370
    18
100
AcDbLine
 10
1519.1
 20
286.88
 30
0.0
 11
1519.1
 21
286.5
 31
0.0
  0
LINE
  5
5B4
330
1F
100
AcDbEntity
  8
作業ﾚｲﾔ1
  6
USER_6
 62
     7
370
    18
100
AcDbLine
 10
1519.1
 20
286.5
 30
0.0
 11
1527.16
 21
286.5
 31
0.0
  0
LINE
  5
5B5
330
1F
100
AcDbEntity
  8
作業ﾚｲﾔ1
  6
USER_6
 62
     7
370
    18
100
AcDbLine
 10
1527.16
 20
286.5
 30
0.0
 11
1527.16
 21
284.46
 31
0.0
  0
LINE
  5
5B6
330
1F
100
AcDbEntity
  8
作業ﾚｲﾔ1
  6
USER_6
 62
     7
370
    18
100
AcDbLine
 10
1527.16
 20
284.46
 30
0.0
 11
1531.152
 21
284.46
 31
0.0
  0
LINE
  5
5B7
330
1F
100
AcDbEntity
  8
作業ﾚｲﾔ1
  6
USER_6
 62
     7
370
    18
100
AcDbLine
 10
1531.152
 20
284.46
 30
0.0
 11
1531.152
 21
282.42
 31
0.0
  0
LINE
  5
5B8
330
1F
100
AcDbEntity
  8
作業ﾚｲﾔ1
  6
USER_6
 62
     7
370
    18
100
AcDbLine
 10
1531.152
 20
282.42
 30
0.0
 11
1535.144
 21
282.42
 31
0.0
  0
LINE
  5
5B9
330
1F
100
AcDbEntity
  8
作業ﾚｲﾔ1
  6
USER_6
 62
     7
370
    18
100
AcDbLine
 10
1535.144
 20
282.42
 30
0.0
 11
1535.144
 21
280.3799999999999
 31
0.0
  0
LINE
  5
5BA
330
1F
100
AcDbEntity
  8
作業ﾚｲﾔ1
  6
USER_6
 62
     7
370
    18
100
AcDbLine
 10
1535.144
 20
280.3799999999999
 30
0.0
 11
1539.136
 21
280.3799999999999
 31
0.0
  0
LINE
  5
5BB
330
1F
100
AcDbEntity
  8
作業ﾚｲﾔ1
  6
USER_6
 62
     7
370
    18
100
AcDbLine
 10
1539.136
 20
280.3799999999999
 30
0.0
 11
1539.136
 21
278.3399999999999
 31
0.0
  0
LINE
  5
5BC
330
1F
100
AcDbEntity
  8
作業ﾚｲﾔ1
  6
USER_6
 62
     7
370
    18
100
AcDbLine
 10
1539.136
 20
278.3399999999999
 30
0.0
 11
1543.128
 21
278.3399999999999
 31
0.0
  0
LINE
  5
5BD
330
1F
100
AcDbEntity
  8
作業ﾚｲﾔ1
  6
USER_6
 62
     7
370
    18
100
AcDbLine
 10
1543.128
 20
278.3399999999999
 30
0.0
 11
1543.128
 21
276.2999999999999
 31
0.0
  0
LINE
  5
5BE
330
1F
100
AcDbEntity
  8
作業ﾚｲﾔ1
  6
USER_6
 62
     7
370
    18
100
AcDbLine
 10
1543.128
 20
276.2999999999999
 30
0.0
 11
1547.12
 21
276.2999999999999
 31
0.0
  0
LWPOLYLINE
  5
5BF
330
1F
100
AcDbEntity
  8
作業ﾚｲﾔ1
  6
USER_6
 62
     7
370
    18
100
AcDbPolyline
 90
        3
 70
   128
 43
0.0
 10
1547.12
 20
276.2999999999999
 10
1551.15
 20
275.8
 10
1558.98
 20
275.8
  0
LINE
  5
5C0
330
1F
100
AcDbEntity
  8
作業ﾚｲﾔ1
  6
Continuous
 62
     7
370
    18
100
AcDbLine
 10
976.8299999999999
 20
128.86
 30
0.0
 11
976.8299999999999
 21
130.46
 31
0.0
  0
LINE
  5
5C1
330
1F
100
AcDbEntity
  8
作業ﾚｲﾔ1
  6
Continuous
 62
     7
370
    18
100
AcDbLine
 10
976.8299999999999
 20
130.86
 30
0.0
 11
976.8299999999999
 21
131.26
 31
0.0
  0
LINE
  5
5C2
330
1F
100
AcDbEntity
  8
作業ﾚｲﾔ1
  6
Continuous
 62
     7
370
    18
100
AcDbLine
 10
976.8299999999999
 20
131.6600000000001
 30
0.0
 11
976.8299999999999
 21
133.6600000000001
 31
0.0
  0
LINE
  5
5C3
330
1F
100
AcDbEntity
  8
作業ﾚｲﾔ1
  6
Continuous
 62
     7
370
    18
100
AcDbLine
 10
976.8299999999999
 20
134.0600000000001
 30
0.0
 11
976.8299999999999
 21
134.46
 31
0.0
  0
LINE
  5
5C4
330
1F
100
AcDbEntity
  8
作業ﾚｲﾔ1
  6
Continuous
 62
     7
370
    18
100
AcDbLine
 10
976.8299999999999
 20
134.86
 30
0.0
 11
976.8299999999999
 21
136.86
 31
0.0
  0
LINE
  5
5C5
330
1F
100
AcDbEntity
  8
作業ﾚｲﾔ1
  6
Continuous
 62
     7
370
    18
100
AcDbLine
 10
976.8299999999999
 20
137.26
 30
0.0
 11
976.8299999999999
 21
137.6600000000001
 31
0.0
  0
LINE
  5
5C6
330
1F
100
AcDbEntity
  8
作業ﾚｲﾔ1
  6
Continuous
 62
     7
370
    18
100
AcDbLine
 10
976.8299999999999
 20
138.0600000000001
 30
0.0
 11
976.8299999999999
 21
140.0600000000001
 31
0.0
  0
LINE
  5
5C7
330
1F
100
AcDbEntity
  8
作業ﾚｲﾔ1
  6
Continuous
 62
     7
370
    18
100
AcDbLine
 10
976.8299999999999
 20
140.46
 30
0.0
 11
976.8299999999999
 21
140.8600000000001
 31
0.0
  0
LINE
  5
5C8
330
1F
100
AcDbEntity
  8
作業ﾚｲﾔ1
  6
Continuous
 62
     7
370
    18
100
AcDbLine
 10
976.8299999999999
 20
141.2600000000001
 30
0.0
 11
976.8299999999999
 21
143.2600000000001
 31
0.0
  0
LINE
  5
5C9
330
1F
100
AcDbEntity
  8
作業ﾚｲﾔ1
  6
Continuous
 62
     7
370
    18
100
AcDbLine
 10
976.8299999999999
 20
143.6600000000001
 30
0.0
 11
976.8299999999999
 21
144.0600000000001
 31
0.0
  0
LINE
  5
5CA
330
1F
100
AcDbEntity
  8
作業ﾚｲﾔ1
  6
Continuous
 62
     7
370
    18
100
AcDbLine
 10
976.8299999999999
 20
144.4600000000001
 30
0.0
 11
976.8299999999999
 21
146.4600000000001
 31
0.0
  0
LINE
  5
5CB
330
1F
100
AcDbEntity
  8
作業ﾚｲﾔ1
  6
Continuous
 62
     7
370
    18
100
AcDbLine
 10
976.8299999999999
 20
146.8600000000001
 30
0.0
 11
976.8299999999999
 21
147.2600000000001
 31
0.0
  0
LINE
  5
5CC
330
1F
100
AcDbEntity
  8
作業ﾚｲﾔ1
  6
Continuous
 62
     7
370
    18
100
AcDbLine
 10
976.8299999999999
 20
147.6600000000001
 30
0.0
 11
976.8299999999999
 21
149.2600000000001
 31
0.0
  0
LINE
  5
5CD
330
1F
100
AcDbEntity
  8
作業ﾚｲﾔ1
  6
Continuous
 62
     7
370
    18
100
AcDbLine
 10
976.5300000000004
 20
149.26
 30
0.0
 11
977.1299999999997
 21
149.26
 31
0.0
  0
TEXT
  5
5CE
330
1F
100
AcDbEntity
  8
作業ﾚｲﾔ1
  6
Continuous
 62
     7
370
    13
100
AcDbText
 10
954.1566642164535
 20
124.0202284758586
 30
0.0
 40
1.915708812260537
  1
As
  7
ＭＳ ゴシック
 72
     1
 11
955.4013887239121
 21
124.9780828819888
 31
0.0
100
AcDbText
 73
     2
  0
LINE
  5
5CF
330
1F
100
AcDbEntity
  8
作業ﾚｲﾔ1
  6
Continuous
 62
     7
370
    18
100
AcDbLine
 10
1047.63
 20
137.91
 30
0.0
 11
1047.63
 21
136.24
 31
0.0
  0
LINE
  5
5D0
330
1F
100
AcDbEntity
  8
作業ﾚｲﾔ1
  6
Continuous
 62
     7
370
    18
100
AcDbLine
 10
1049.37
 20
137.24
 30
0.0
 11
1049.37
 21
136.24
 31
0.0
  0
TEXT
  5
5D1
330
1F
100
AcDbEntity
  8
作業ﾚｲﾔ1
  6
Continuous
 62
     7
370
    13
100
AcDbText
 10
1015.70517108015
 20
126.0120519369945
 30
0.0
 40
1.915708812260537
  1
g
  7
ＭＳ ゴシック
 72
     1
 11
1016.327533333879
 21
126.9699063431248
 31
0.0
100
AcDbText
 73
     2
  0
LINE
  5
5D2
330
1F
100
AcDbEntity
  8
作業ﾚｲﾔ1
  6
Continuous
 62
     7
370
    18
100
AcDbLine
 10
977.8299999999999
 20
126.66
 30
0.0
 11
977.8299999999999
 21
125.66
 31
0.0
  0
LINE
  5
5D3
330
1F
100
AcDbEntity
  8
作業ﾚｲﾔ1
  6
Continuous
 62
     7
370
    18
100
AcDbLine
 10
964.98
 20
127.1800000000001
 30
0.0
 11
964.98
 21
125.6600000000002
 31
0.0
  0
LINE
  5
5D4
330
1F
100
AcDbEntity
  8
作業ﾚｲﾔ7
  6
Continuous
 62
     7
370
    50
100
AcDbLine
 10
1702.0
 20
554.0
 30
0.0
 11
901.0
 21
554.0
 31
0.0
  0
LINE
  5
5D5
330
1F
100
AcDbEntity
  8
作業ﾚｲﾔ7
  6
Continuous
 62
     7
370
    50
100
AcDbLine
 10
901.0
 20
554.0
 30
0.0
 11
901.0
 21
0.0
 31
0.0
  0
LINE
  5
5D6
330
1F
100
AcDbEntity
  8
作業ﾚｲﾔ7
  6
Continuous
 62
     7
370
    50
100
AcDbLine
 10
901.0
 20
0.0
 30
0.0
 11
1702.0
 21
0.0
 31
0.0
  0
LINE
  5
5D7
330
1F
100
AcDbEntity
  8
作業ﾚｲﾔ7
  6
Continuous
 62
     7
370
    50
100
AcDbLine
 10
1702.0
 20
0.0
 30
0.0
 11
1702.0
 21
554.0
 31
0.0
  0
LINE
  5
5D8
330
1F
100
AcDbEntity
  8
作業ﾚｲﾔ7
  6
Continuous
 62
     7
370
    35
100
AcDbLine
 10
1612.0
 20
60.00000000000489
 30
0.0
 11
1612.0
 21
0.0
 31
0.0
  0
LINE
  5
5D9
330
1F
100
AcDbEntity
  8
作業ﾚｲﾔ7
  6
Continuous
 62
     7
370
    35
100
AcDbLine
 10
1702.0
 20
60.00000000000489
 30
0.0
 11
1612.0
 21
60.00000000000489
 31
0.0
  0
TEXT
  5
5DA
330
1F
100
AcDbEntity
  8
作業ﾚｲﾔ7
  6
Continuous
 62
     7
370
    35
100
AcDbText
 10
1632.524343119788
 20
9.079586208567166
 30
0.0
 40
2.084291187739464
  1
〒238-0004　横須賀市小川町28番地1-202
  7
ＭＳ ゴシック
 72
     1
 11
1657.578158005916
 21
10.1217318024369
 31
0.0
100
AcDbText
 73
     2
  0
TEXT
  5
5DB
330
1F
100
AcDbEntity
  8
作業ﾚｲﾔ7
  6
Continuous
 62
     7
370
    35
100
AcDbText
 10
1627.774158005916
 20
5.196728350837106
 30
0.0
 40
2.513409961685824
  1
有限会社
  7
ＭＳ ゴシック
 11
1627.774158005916
 21
4.737425007584875
 31
0.0
100
AcDbText
 73
     1
  0
TEXT
  5
5DC
330
1F
100
AcDbEntity
  8
作業ﾚｲﾔ7
  6
Continuous
 62
     7
370
    35
100
AcDbText
 10
1654.720586930202
 20
5.021071388648098
 30
0.0
 40
2.513409961685824
  1
オーヤマプランニング
  7
ＭＳ ゴシック
 72
     2
 11
1687.382158005916
 21
4.561768045395866
 31
0.0
100
AcDbText
 73
     1
  0
TEXT
  5
5DD
330
1F
100
AcDbEntity
  8
作業ﾚｲﾔ7
  6
Continuous
 62
     7
370
    35
100
AcDbText
 10
1630.174303249707
 20
1.5576274860506
 30
0.0
 40
1.96168582375479
  1
ＴＥＬ　050-3629-9812　　FAX　050-3629-9816
  7
ＭＳ ゴシック
 72
     1
 11
1657.578158005917
 21
2.538470397927995
 31
0.0
100
AcDbText
 73
     2
  0
LINE
  5
5DE
330
1F
100
AcDbEntity
  8
作業ﾚｲﾔ7
  6
Continuous
 62
     7
370
    35
100
AcDbLine
 10
1702.0
 20
13.33333333333815
 30
0.0
 11
1612.0
 21
13.33333333333815
 31
0.0
  0
LINE
  5
5DF
330
1F
100
AcDbEntity
  8
作業ﾚｲﾔ7
  6
Continuous
 62
     7
370
    35
100
AcDbLine
 10
1702.0
 20
50.00000000000477
 30
0.0
 11
1612.0
 21
50.00000000000477
 31
0.0
  0
LINE
  5
5E0
330
1F
100
AcDbEntity
  8
作業ﾚｲﾔ7
  6
Continuous
 62
     7
370
    35
100
AcDbLine
 10
1702.0
 20
40.00000000000477
 30
0.0
 11
1612.0
 21
40.00000000000477
 31
0.0
  0
LINE
  5
5E1
330
1F
100
AcDbEntity
  8
作業ﾚｲﾔ7
  6
Continuous
 62
     7
370
    35
100
AcDbLine
 10
1702.0
 20
31.66666666667152
 30
0.0
 11
1612.0
 21
31.66666666667152
 31
0.0
  0
LINE
  5
5E2
330
1F
100
AcDbEntity
  8
作業ﾚｲﾔ7
  6
Continuous
 62
     7
370
    35
100
AcDbLine
 10
1702.0
 20
23.33333333333815
 30
0.0
 11
1612.0
 21
23.33333333333815
 31
0.0
  0
LINE
  5
5E3
330
1F
100
AcDbEntity
  8
作業ﾚｲﾔ7
  6
Continuous
 62
     7
370
    35
100
AcDbLine
 10
1632.0
 20
60.00000000000489
 30
0.0
 11
1632.0
 21
13.33333333333815
 31
0.0
  0
LINE
  5
5E4
330
1F
100
AcDbEntity
  8
作業ﾚｲﾔ7
  6
Continuous
 62
     7
370
    35
100
AcDbLine
 10
1652.0
 20
31.66666666667152
 30
0.0
 11
1652.0
 21
13.33333333333815
 31
0.0
  0
LINE
  5
5E5
330
1F
100
AcDbEntity
  8
作業ﾚｲﾔ7
  6
Continuous
 62
     7
370
    35
100
AcDbLine
 10
1672.0
 20
31.66666666667152
 30
0.0
 11
1672.0
 21
13.33333333333815
 31
0.0
  0
TEXT
  5
5E6
330
1F
100
AcDbEntity
  8
作業ﾚｲﾔ7
  6
Continuous
 62
     7
370
    35
100
AcDbText
 10
1613.360523403117
 20
53.80717496537839
 30
0.0
 40
2.681992337164751
  1
業　務　名
  7
ＭＳ ゴシック
 72
     1
 11
1622.073594955327
 21
55.14817113396077
 31
0.0
100
AcDbText
 73
     2
  0
TEXT
  5
5E7
330
1F
100
AcDbEntity
  8
作業ﾚｲﾔ7
  6
Continuous
 62
     7
370
    35
100
AcDbText
 10
1613.360523403117
 20
43.80717496537839
 30
0.0
 40
2.681992337164751
  1
所　　　在
  7
ＭＳ ゴシック
 72
     1
 11
1622.073594955327
 21
45.14817113396077
 31
0.0
100
AcDbText
 73
     2
  0
TEXT
  5
5E8
330
1F
100
AcDbEntity
  8
作業ﾚｲﾔ7
  6
Continuous
 62
     7
370
    35
100
AcDbText
 10
1613.393460861065
 20
34.88789912003573
 30
0.0
 40
2.681992337164751
  1
図　面　名
  7
ＭＳ ゴシック
 72
     1
 11
1622.106532413275
 21
36.22889528861811
 31
0.0
100
AcDbText
 73
     2
  0
TEXT
  5
5E9
330
1F
100
AcDbEntity
  8
作業ﾚｲﾔ7
  6
Continuous
 62
     7
370
    35
100
AcDbText
 10
1618.621303792391
 20
26.55456578670247
 30
0.0
 40
2.681992337164751
  1
縮尺
  7
ＭＳ ゴシック
 72
     1
 11
1622.106532413275
 21
27.89556195528485
 31
0.0
100
AcDbText
 73
     2
  0
TEXT
  5
5EA
330
1F
100
AcDbEntity
  8
作業ﾚｲﾔ7
  6
Continuous
 62
     7
370
    35
100
AcDbText
 10
1616.845752024001
 20
17.14050829871166
 30
0.0
 40
2.681992337164751
  1
作成者
  7
ＭＳ ゴシック
 72
     1
 11
1622.073594955327
 21
18.48150446729403
 31
0.0
100
AcDbText
 73
     2
  0
TEXT
  5
5EB
330
1F
100
AcDbEntity
  8
作業ﾚｲﾔ7
  6
Continuous
 62
     7
370
    35
100
AcDbText
 10
1655.103137713559
 20
19.62550454337212
 30
0.0
 40
2.681992337164751
  1
資格登録
  7
ＭＳ ゴシック
 72
     1
 11
1662.073594955327
 21
20.9665007119545
 31
0.0
100
AcDbText
 73
     2
  0
TEXT
  5
5EC
330
1F
100
AcDbEntity
  8
作業ﾚｲﾔ7
  6
Continuous
 62
     7
370
    35
100
AcDbText
 10
1658.588366334443
 20
14.61901093527307
 30
0.0
 40
2.681992337164751
  1
番号
  7
ＭＳ ゴシック
 72
     1
 11
1662.073594955327
 21
15.96000710385545
 31
0.0
100
AcDbText
 73
     2
  0
TEXT
  5
5ED
330
1F
100
AcDbEntity
  8
作業ﾚｲﾔ7
  6
Continuous
 62
     7
370
    35
100
AcDbText
 10
1633.360523403117
 20
17.14050829871177
 30
0.0
 40
2.681992337164751
  1
小野口翔也
  7
ＭＳ ゴシック
 72
     1
 11
1642.073594955328
 21
18.48150446729414
 31
0.0
100
AcDbText
 73
     2
  0
TEXT
  5
5EE
330
1F
100
AcDbEntity
  8
作業ﾚｲﾔ7
  6
Continuous
 62
     7
370
    35
100
AcDbText
 10
1680.900849913453
 20
15.33634099617334
 30
0.0
 40
2.681992337164751
  1
H21-240
  7
ＭＳ ゴシック
 72
     1
 11
1687.0
 21
18.01833333333809
 31
0.0
100
AcDbText
 73
     3
  0
TEXT
  5
5EF
330
1F
100
AcDbEntity
  8
作業ﾚｲﾔ7
  6
Continuous
 62
     7
370
    35
100
AcDbText
 10
1653.28692844779
 20
26.25000383142241
 30
0.0
 40
2.681992337164751
  1
作成年月日
  7
ＭＳ ゴシック
 72
     1
 11
1662.0
 21
27.59100000000478
 31
0.0
100
AcDbText
 73
     2
  0
TEXT
  5
5F0
330
1F
100
AcDbEntity
  8
作業ﾚｲﾔ7
  6
Continuous
 62
     7
370
    35
100
AcDbText
 10
1674.75
 20
18.82694360815001
 30
0.0
 40
2.681992337164751
  1
測量士
  7
ＭＳ ゴシック
 11
1674.75
 21
18.33683333333818
 31
0.0
100
AcDbText
 73
     1
  0
TEXT
  5
5F1
330
1F
100
AcDbEntity
  8
作業ﾚｲﾔ7
  6
Continuous
 62
     7
370
    35
100
AcDbText
 10
1643.481264773733
 20
34.88789912003584
 30
0.0
 40
2.681992337164751
  1
横断図（BNO.3～BNO.5）5/6
  7
ＭＳ ゴシック
 72
     1
 11
1665.263943654259
 21
36.22889528861822
 31
0.0
100
AcDbText
 73
     2
  0
LINE
  5
5F2
330
1F
100
AcDbEntity
  8
作業ﾚｲﾔ1
  6
dashed
 62
     7
370
    18
100
AcDbLine
 10
969.19
 20
128.8797457627119
 30
0.0
 11
969.19
 21
118.8797457627119
 31
0.0
  0
LINE
  5
5F3
330
1F
100
AcDbEntity
  8
作業ﾚｲﾔ1
  6
dashed
 62
     7
370
    18
100
AcDbLine
 10
976.29
 20
128.8745232273839
 30
0.0
 11
976.29
 21
118.8745232273839
 31
0.0
  0
TEXT
  5
5F4
330
1F
100
AcDbEntity
  8
作業ﾚｲﾔ1
  6
Continuous
 62
     7
370
    13
100
AcDbText
 10
965.7750994074277
 20
124.284283821108
 30
0.0
 40
1.915708812260537
  1
Co
  7
ＭＳ ゴシック
 72
     1
 11
967.0198239148863
 21
125.2421382272382
 31
0.0
100
AcDbText
 73
     2
  0
LINE
  5
5F5
330
1F
100
AcDbEntity
  8
作業ﾚｲﾔ1
  6
Continuous
 62
     7
370
    18
100
AcDbLine
 10
945.0500000000002
 20
126.59
 30
0.0
 11
945.0500000000002
 21
124.13
 31
0.0
  0
LINE
  5
5F6
330
1F
100
AcDbEntity
  8
作業ﾚｲﾔ1
  6
Continuous
 62
     7
370
    18
100
AcDbLine
 10
943.48
 20
125.13
 30
0.0
 11
943.48
 21
124.13
 31
0.0
  0
LINE
  5
5F7
330
1F
100
AcDbEntity
  8
作業ﾚｲﾔ1
  6
Continuous
 62
     7
370
    18
100
AcDbLine
 10
938.52
 20
125.4499999999988
 30
0.0
 11
938.52
 21
124.4499999999988
 31
0.0
  0
LINE
  5
5F8
330
1F
100
AcDbEntity
  8
作業ﾚｲﾔ1
  6
Continuous
 62
     7
370
    18
100
AcDbLine
 10
1412.19
 20
137.9
 30
0.0
 11
1412.19
 21
135.9
 31
0.0
  0
LINE
  5
5F9
330
1F
100
AcDbEntity
  8
作業ﾚｲﾔ1
  6
Continuous
 62
     7
370
    18
100
AcDbLine
 10
1410.49
 20
136.9
 30
0.0
 11
1410.49
 21
135.9
 31
0.0
  0
LINE
  5
5FA
330
1F
100
AcDbEntity
  8
作業ﾚｲﾔ1
  6
Continuous
 62
     7
370
    18
100
AcDbLine
 10
1460.04
 20
137.93
 30
0.0
 11
1460.04
 21
136.9299999999999
 31
0.0
  0
LINE
  5
5FB
330
1F
100
AcDbEntity
  8
作業ﾚｲﾔ1
  6
Continuous
 62
     7
370
    18
100
AcDbLine
 10
1458.21
 20
138.37
 30
0.0
 11
1458.21
 21
136.9299999999999
 31
0.0
  0
LINE
  5
5FC
330
1F
100
AcDbEntity
  8
作業ﾚｲﾔ1
  6
Continuous
 62
     7
370
    18
100
AcDbLine
 10
1482.86
 20
137.96
 30
0.0
 11
1482.86
 21
136.9599999999999
 31
0.0
  0
LINE
  5
5FD
330
1F
100
AcDbEntity
  8
作業ﾚｲﾔ1
  6
Continuous
 62
     7
370
    18
100
AcDbLine
 10
1484.68
 20
138.45
 30
0.0
 11
1484.68
 21
136.9599999999999
 31
0.0
  0
TEXT
  5
5FE
330
1F
100
AcDbEntity
  8
作業ﾚｲﾔ1
  6
Continuous
 62
     7
370
    13
100
AcDbText
 10
1436.417182286859
 20
134.9403265148098
 30
0.0
 40
1.915708812260537
  1
g
  7
ＭＳ ゴシック
 72
     1
 11
1437.039544540588
 21
135.89818092094
 31
0.0
100
AcDbText
 73
     2
  0
TEXT
  5
5FF
330
1F
100
AcDbEntity
  8
作業ﾚｲﾔ1
  6
Continuous
 62
     7
370
    13
100
AcDbText
 10
1471.31235377888
 20
133.8994374415664
 30
0.0
 40
1.915708812260537
  1
g
  7
ＭＳ ゴシック
 72
     1
 11
1471.93471603261
 21
134.8572918476967
 31
0.0
100
AcDbText
 73
     2
  0
TEXT
  5
600
330
1F
100
AcDbEntity
  8
作業ﾚｲﾔ1
  6
Continuous
 62
     7
370
    13
100
AcDbText
 10
1522.48728425181
 20
135.2386300906782
 30
0.0
 40
1.915708812260537
  1
g
  7
ＭＳ ゴシック
 72
     1
 11
1523.109646505539
 21
136.1964844968085
 31
0.0
100
AcDbText
 73
     2
  0
LINE
  5
601
330
1F
100
AcDbEntity
  8
作業ﾚｲﾔ1
  6
Continuous
 62
     7
370
    18
100
AcDbLine
 10
1560.23
 20
125.79
 30
0.0
 11
1560.23
 21
124.79
 31
0.0
  0
LINE
  5
602
330
1F
100
AcDbEntity
  8
作業ﾚｲﾔ1
  6
Continuous
 62
     7
370
    18
100
AcDbLine
 10
1562.24
 20
125.83
 30
0.0
 11
1562.24
 21
124.79
 31
0.0
  0
TEXT
  5
603
330
1F
100
AcDbEntity
  8
作業ﾚｲﾔ1
  6
Continuous
 62
     7
370
    13
100
AcDbText
 10
1603.543185510787
 20
121.7689983388844
 30
0.0
 40
1.915708812260537
  1
As
  7
ＭＳ ゴシック
 72
     1
 11
1604.787910018245
 21
122.7268527450146
 31
0.0
100
AcDbText
 73
     2
  0
LINE
  5
604
330
1F
100
AcDbEntity
  8
作業ﾚｲﾔ1
  6
Continuous
 62
     7
370
    18
100
AcDbLine
 10
1413.49
 20
137.9
 30
0.0
 11
1413.49
 21
139.4
 31
0.0
  0
LINE
  5
605
330
1F
100
AcDbEntity
  8
作業ﾚｲﾔ1
  6
Continuous
 62
     7
370
    18
100
AcDbLine
 10
1413.49
 20
139.8
 30
0.0
 11
1413.49
 21
140.2
 31
0.0
  0
LINE
  5
606
330
1F
100
AcDbEntity
  8
作業ﾚｲﾔ1
  6
Continuous
 62
     7
370
    18
100
AcDbLine
 10
1413.49
 20
140.6
 30
0.0
 11
1413.49
 21
142.6
 31
0.0
  0
LINE
  5
607
330
1F
100
AcDbEntity
  8
作業ﾚｲﾔ1
  6
Continuous
 62
     7
370
    18
100
AcDbLine
 10
1413.49
 20
143.0
 30
0.0
 11
1413.49
 21
143.4
 31
0.0
  0
LINE
  5
608
330
1F
100
AcDbEntity
  8
作業ﾚｲﾔ1
  6
Continuous
 62
     7
370
    18
100
AcDbLine
 10
1413.49
 20
143.8
 30
0.0
 11
1413.49
 21
145.8
 31
0.0
  0
LINE
  5
609
330
1F
100
AcDbEntity
  8
作業ﾚｲﾔ1
  6
Continuous
 62
     7
370
    18
100
AcDbLine
 10
1413.49
 20
146.2
 30
0.0
 11
1413.49
 21
146.6
 31
0.0
  0
LINE
  5
60A
330
1F
100
AcDbEntity
  8
作業ﾚｲﾔ1
  6
Continuous
 62
     7
370
    18
100
AcDbLine
 10
1413.49
 20
147.0
 30
0.0
 11
1413.49
 21
149.0
 31
0.0
  0
LINE
  5
60B
330
1F
100
AcDbEntity
  8
作業ﾚｲﾔ1
  6
Continuous
 62
     7
370
    18
100
AcDbLine
 10
1413.49
 20
149.4
 30
0.0
 11
1413.49
 21
149.8000000000001
 31
0.0
  0
LINE
  5
60C
330
1F
100
AcDbEntity
  8
作業ﾚｲﾔ1
  6
Continuous
 62
     7
370
    18
100
AcDbLine
 10
1413.49
 20
150.2
 30
0.0
 11
1413.49
 21
152.2
 31
0.0
  0
LINE
  5
60D
330
1F
100
AcDbEntity
  8
作業ﾚｲﾔ1
  6
Continuous
 62
     7
370
    18
100
AcDbLine
 10
1413.49
 20
152.6
 30
0.0
 11
1413.49
 21
153.0000000000001
 31
0.0
  0
LINE
  5
60E
330
1F
100
AcDbEntity
  8
作業ﾚｲﾔ1
  6
Continuous
 62
     7
370
    18
100
AcDbLine
 10
1413.49
 20
153.4000000000001
 30
0.0
 11
1413.49
 21
155.4000000000001
 31
0.0
  0
LINE
  5
60F
330
1F
100
AcDbEntity
  8
作業ﾚｲﾔ1
  6
Continuous
 62
     7
370
    18
100
AcDbLine
 10
1413.49
 20
155.8000000000001
 30
0.0
 11
1413.49
 21
156.2
 31
0.0
  0
LINE
  5
610
330
1F
100
AcDbEntity
  8
作業ﾚｲﾔ1
  6
Continuous
 62
     7
370
    18
100
AcDbLine
 10
1413.49
 20
156.6000000000001
 30
0.0
 11
1413.49
 21
158.1
 31
0.0
  0
LINE
  5
611
330
1F
100
AcDbEntity
  8
作業ﾚｲﾔ1
  6
Continuous
 62
     7
370
    18
100
AcDbLine
 10
1413.190000000001
 20
158.1
 30
0.0
 11
1413.79
 21
158.1
 31
0.0
  0
LINE
  5
612
330
1F
100
AcDbEntity
  8
測点名
  6
Continuous
 62
     7
370
    18
100
AcDbLine
 10
937.4300000000001
 20
200.0
 30
0.0
 11
955.9300000000001
 21
200.0
 31
0.0
  0
LINE
  5
613
330
1F
100
AcDbEntity
  8
測点名
  6
Continuous
 62
     7
370
    18
100
AcDbLine
 10
937.4300000000001
 20
201.0
 30
0.0
 11
955.9300000000001
 21
201.0
 31
0.0
  0
TEXT
  5
614
330
1F
100
AcDbEntity
  8
測点名
  6
Continuous
 62
     7
370
    13
100
AcDbText
 10
942.9458264776242
 20
202.7051575354455
 30
0.0
 40
3.831417624521073
  1
B3L
  7
ＭＳ ゴシック
 72
     1
 11
946.6800000000001
 21
202.005
 31
0.0
100
AcDbText
 73
     1
  0
LINE
  5
615
330
1F
100
AcDbEntity
  8
中心線
  6
chain
 62
     7
370
    18
100
AcDbLine
 10
946.6800000000001
 20
106.97
 30
0.0
 11
946.6800000000001
 21
146.97
 31
0.0
  0
TEXT
  5
616
330
1F
100
AcDbEntity
  8
ＧＨ
  6
Continuous
 62
     7
370
    13
100
AcDbText
 10
946.6800000000001
 20
192.3525787677227
 30
0.0
 40
1.915708812260537
  1
GH=2.70
  7
ＭＳ ゴシック
 11
946.6800000000001
 21
192.0025
 31
0.0
100
AcDbText
 73
     1
  0
TEXT
  5
617
330
1F
100
AcDbEntity
  8
ＰＨ
  6
Continuous
 62
     7
370
    13
100
AcDbText
 10
946.6800000000001
 20
195.3525787677227
 30
0.0
 40
1.915708812260537
  1
PH=2.70
  7
ＭＳ ゴシック
 11
946.6800000000001
 21
195.0025
 31
0.0
100
AcDbText
 73
     1
  0
LINE
  5
618
330
1F
100
AcDbEntity
  8
測点名
  6
Continuous
 62
     7
370
    18
100
AcDbLine
 10
1591.75
 20
200.05
 30
0.0
 11
1610.25
 21
200.05
 31
0.0
  0
LINE
  5
619
330
1F
100
AcDbEntity
  8
測点名
  6
Continuous
 62
     7
370
    18
100
AcDbLine
 10
1591.75
 20
201.05
 30
0.0
 11
1610.25
 21
201.05
 31
0.0
  0
TEXT
  5
61A
330
1F
100
AcDbEntity
  8
測点名
  6
Continuous
 62
     7
370
    13
100
AcDbText
 10
1593.531652955248
 20
202.7551575354455
 30
0.0
 40
3.831417624521073
  1
BNO.3R
  7
ＭＳ ゴシック
 72
     1
 11
1601.0
 21
202.055
 31
0.0
100
AcDbText
 73
     1
  0
LINE
  5
61B
330
1F
100
AcDbEntity
  8
中心線
  6
chain
 62
     7
370
    18
100
AcDbLine
 10
1601.0
 20
105.38
 30
0.0
 11
1601.0
 21
145.38
 31
0.0
  0
TEXT
  5
61C
330
1F
100
AcDbEntity
  8
ＧＨ
  6
Continuous
 62
     7
370
    13
100
AcDbText
 10
1601.0
 20
192.4025787677228
 30
0.0
 40
1.915708812260537
  1
GH=2.54
  7
ＭＳ ゴシック
 11
1601.0
 21
192.0525
 31
0.0
100
AcDbText
 73
     1
  0
TEXT
  5
61D
330
1F
100
AcDbEntity
  8
ＰＨ
  6
Continuous
 62
     7
370
    13
100
AcDbText
 10
1601.0
 20
195.4025787677228
 30
0.0
 40
1.915708812260537
  1
PH=2.54
  7
ＭＳ ゴシック
 11
1601.0
 21
195.0525
 31
0.0
100
AcDbText
 73
     1
  0
LINE
  5
61E
330
1F
100
AcDbEntity
  8
作業ﾚｲﾔ1
  6
Continuous
 62
     7
370
    18
100
AcDbLine
 10
1048.87
 20
288.29
 30
0.0
 11
1048.87
 21
286.4
 31
0.0
  0
LINE
  5
61F
330
1F
100
AcDbEntity
  8
作業ﾚｲﾔ1
  6
Continuous
 62
     7
370
    18
100
AcDbLine
 10
1050.46
 20
287.4
 30
0.0
 11
1050.46
 21
286.4
 31
0.0
  0
TEXT
  5
620
330
1F
100
AcDbEntity
  8
作業ﾚｲﾔ1
  6
Continuous
 62
     7
370
    13
100
AcDbText
 10
1012.509470612014
 20
272.9167341962276
 30
0.0
 40
1.915708812260537
  1
g
  7
ＭＳ ゴシック
 72
     1
 11
1013.131832865743
 21
273.8745886023578
 31
0.0
100
AcDbText
 73
     2
  0
LINE
  5
621
330
1F
100
AcDbEntity
  8
作業ﾚｲﾔ1
  6
Continuous
 62
     7
370
    18
100
AcDbLine
 10
952.5799999999999
 20
276.79
 30
0.0
 11
952.5799999999999
 21
275.79
 31
0.0
  0
LINE
  5
622
330
1F
100
AcDbEntity
  8
作業ﾚｲﾔ1
  6
Continuous
 62
     7
370
    18
100
AcDbLine
 10
950.6100000000001
 20
276.86
 30
0.0
 11
950.6100000000001
 21
275.79
 31
0.0
  0
TEXT
  5
623
330
1F
100
AcDbEntity
  8
作業ﾚｲﾔ1
  6
Continuous
 62
     7
370
    13
100
AcDbText
 10
938.2218491533006
 20
274.2038537968908
 30
0.0
 40
1.915708812260537
  1
As
  7
ＭＳ ゴシック
 72
     1
 11
939.4665736607592
 21
275.161708203021
 31
0.0
100
AcDbText
 73
     2
  0
LINE
  5
624
330
1F
100
AcDbEntity
  8
作業ﾚｲﾔ1
  6
Continuous
 62
     7
370
    18
100
AcDbLine
 10
927.52
 20
275.49
 30
0.0
 11
927.52
 21
274.49
 31
0.0
  0
LINE
  5
625
330
1F
100
AcDbEntity
  8
作業ﾚｲﾔ1
  6
Continuous
 62
     7
370
    18
100
AcDbLine
 10
929.1300000000001
 20
276.94
 30
0.0
 11
929.1300000000001
 21
274.49
 31
0.0
  0
LINE
  5
626
330
1F
100
AcDbEntity
  8
作業ﾚｲﾔ1
  6
Continuous
 62
     7
370
    18
100
AcDbLine
 10
922.6700000000001
 20
275.59
 30
0.0
 11
922.6700000000001
 21
274.49
 31
0.0
  0
LINE
  5
627
330
1F
100
AcDbEntity
  8
作業ﾚｲﾔ1
  6
Continuous
 62
     7
370
    18
100
AcDbLine
 10
951.5999999999999
 20
278.49
 30
0.0
 11
951.5999999999999
 21
280.14
 31
0.0
  0
LINE
  5
628
330
1F
100
AcDbEntity
  8
作業ﾚｲﾔ1
  6
Continuous
 62
     7
370
    18
100
AcDbLine
 10
951.5999999999999
 20
280.54
 30
0.0
 11
951.5999999999999
 21
280.9399999999999
 31
0.0
  0
LINE
  5
629
330
1F
100
AcDbEntity
  8
作業ﾚｲﾔ1
  6
Continuous
 62
     7
370
    18
100
AcDbLine
 10
951.5999999999999
 20
281.3399999999999
 30
0.0
 11
951.5999999999999
 21
283.3399999999999
 31
0.0
  0
LINE
  5
62A
330
1F
100
AcDbEntity
  8
作業ﾚｲﾔ1
  6
Continuous
 62
     7
370
    18
100
AcDbLine
 10
951.5999999999999
 20
283.7399999999999
 30
0.0
 11
951.5999999999999
 21
284.1399999999999
 31
0.0
  0
LINE
  5
62B
330
1F
100
AcDbEntity
  8
作業ﾚｲﾔ1
  6
Continuous
 62
     7
370
    18
100
AcDbLine
 10
951.5999999999999
 20
284.5399999999998
 30
0.0
 11
951.5999999999999
 21
286.5399999999998
 31
0.0
  0
LINE
  5
62C
330
1F
100
AcDbEntity
  8
作業ﾚｲﾔ1
  6
Continuous
 62
     7
370
    18
100
AcDbLine
 10
951.5999999999999
 20
286.9399999999998
 30
0.0
 11
951.5999999999999
 21
287.3399999999998
 31
0.0
  0
LINE
  5
62D
330
1F
100
AcDbEntity
  8
作業ﾚｲﾔ1
  6
Continuous
 62
     7
370
    18
100
AcDbLine
 10
951.5999999999999
 20
287.7399999999998
 30
0.0
 11
951.5999999999999
 21
289.7399999999998
 31
0.0
  0
LINE
  5
62E
330
1F
100
AcDbEntity
  8
作業ﾚｲﾔ1
  6
Continuous
 62
     7
370
    18
100
AcDbLine
 10
951.5999999999999
 20
290.1399999999998
 30
0.0
 11
951.5999999999999
 21
290.5399999999997
 31
0.0
  0
LINE
  5
62F
330
1F
100
AcDbEntity
  8
作業ﾚｲﾔ1
  6
Continuous
 62
     7
370
    18
100
AcDbLine
 10
951.5999999999999
 20
290.9399999999997
 30
0.0
 11
951.5999999999999
 21
292.9399999999997
 31
0.0
  0
LINE
  5
630
330
1F
100
AcDbEntity
  8
作業ﾚｲﾔ1
  6
Continuous
 62
     7
370
    18
100
AcDbLine
 10
951.5999999999999
 20
293.3399999999997
 30
0.0
 11
951.5999999999999
 21
293.7399999999997
 31
0.0
  0
LINE
  5
631
330
1F
100
AcDbEntity
  8
作業ﾚｲﾔ1
  6
Continuous
 62
     7
370
    18
100
AcDbLine
 10
951.5999999999999
 20
294.1399999999996
 30
0.0
 11
951.5999999999999
 21
296.1399999999996
 31
0.0
  0
LINE
  5
632
330
1F
100
AcDbEntity
  8
作業ﾚｲﾔ1
  6
Continuous
 62
     7
370
    18
100
AcDbLine
 10
951.5999999999999
 20
296.5399999999996
 30
0.0
 11
951.5999999999999
 21
296.9399999999996
 31
0.0
  0
LINE
  5
633
330
1F
100
AcDbEntity
  8
作業ﾚｲﾔ1
  6
Continuous
 62
     7
370
    18
100
AcDbLine
 10
951.5999999999999
 20
297.3399999999996
 30
0.0
 11
951.5999999999999
 21
298.9899999999996
 31
0.0
  0
LINE
  5
634
330
1F
100
AcDbEntity
  8
作業ﾚｲﾔ1
  6
Continuous
 62
     7
370
    18
100
AcDbLine
 10
951.3000000000004
 20
298.99
 30
0.0
 11
951.8999999999996
 21
298.99
 31
0.0
  0
LINE
  5
635
330
1F
100
AcDbEntity
  8
作業ﾚｲﾔ1
  6
Continuous
 62
     7
370
    18
100
AcDbLine
 10
1411.28
 20
287.34
 30
0.0
 11
1411.28
 21
286.34
 31
0.0
  0
LINE
  5
636
330
1F
100
AcDbEntity
  8
作業ﾚｲﾔ1
  6
Continuous
 62
     7
370
    18
100
AcDbLine
 10
1412.83
 20
288.35
 30
0.0
 11
1412.83
 21
286.34
 31
0.0
  0
LINE
  5
637
330
1F
100
AcDbEntity
  8
作業ﾚｲﾔ1
  6
Continuous
 62
     7
370
    18
100
AcDbLine
 10
1421.13
 20
287.76
 30
0.0
 11
1421.13
 21
286.76
 31
0.0
  0
LINE
  5
638
330
1F
100
AcDbEntity
  8
作業ﾚｲﾔ1
  6
Continuous
 62
     7
370
    18
100
AcDbLine
 10
1416.59
 20
288.09
 30
0.0
 11
1416.59
 21
286.76
 31
0.0
  0
TEXT
  5
639
330
1F
100
AcDbEntity
  8
作業ﾚｲﾔ1
  6
Continuous
 62
     7
370
    13
100
AcDbText
 10
1414.012053697632
 20
285.9920886269232
 30
0.0
 40
1.915708812260537
  1
g
  7
ＭＳ ゴシック
 72
     1
 11
1414.634415951361
 21
286.9499430330535
 31
0.0
100
AcDbText
 73
     2
  0
TEXT
  5
63A
330
1F
100
AcDbEntity
  8
作業ﾚｲﾔ1
  6
Continuous
 62
     7
370
    13
100
AcDbText
 10
1475.359629754257
 20
285.0062058868189
 30
0.0
 40
1.915708812260537
  1
g
  7
ＭＳ ゴシック
 72
     1
 11
1475.981992007986
 21
285.9640602929491
 31
0.0
100
AcDbText
 73
     2
  0
LINE
  5
63B
330
1F
100
AcDbEntity
  8
作業ﾚｲﾔ1
  6
Continuous
 62
     7
370
    18
100
AcDbLine
 10
1414.13
 20
288.35
 30
0.0
 11
1414.13
 21
289.95
 31
0.0
  0
LINE
  5
63C
330
1F
100
AcDbEntity
  8
作業ﾚｲﾔ1
  6
Continuous
 62
     7
370
    18
100
AcDbLine
 10
1414.13
 20
290.35
 30
0.0
 11
1414.13
 21
290.7499999999999
 31
0.0
  0
LINE
  5
63D
330
1F
100
AcDbEntity
  8
作業ﾚｲﾔ1
  6
Continuous
 62
     7
370
    18
100
AcDbLine
 10
1414.13
 20
291.1499999999999
 30
0.0
 11
1414.13
 21
293.1499999999999
 31
0.0
  0
LINE
  5
63E
330
1F
100
AcDbEntity
  8
作業ﾚｲﾔ1
  6
Continuous
 62
     7
370
    18
100
AcDbLine
 10
1414.13
 20
293.5499999999999
 30
0.0
 11
1414.13
 21
293.9499999999999
 31
0.0
  0
LINE
  5
63F
330
1F
100
AcDbEntity
  8
作業ﾚｲﾔ1
  6
Continuous
 62
     7
370
    18
100
AcDbLine
 10
1414.13
 20
294.3499999999999
 30
0.0
 11
1414.13
 21
296.3499999999999
 31
0.0
  0
LINE
  5
640
330
1F
100
AcDbEntity
  8
作業ﾚｲﾔ1
  6
Continuous
 62
     7
370
    18
100
AcDbLine
 10
1414.13
 20
296.7499999999998
 30
0.0
 11
1414.13
 21
297.1499999999998
 31
0.0
  0
LINE
  5
641
330
1F
100
AcDbEntity
  8
作業ﾚｲﾔ1
  6
Continuous
 62
     7
370
    18
100
AcDbLine
 10
1414.13
 20
297.5499999999998
 30
0.0
 11
1414.13
 21
299.5499999999998
 31
0.0
  0
LINE
  5
642
330
1F
100
AcDbEntity
  8
作業ﾚｲﾔ1
  6
Continuous
 62
     7
370
    18
100
AcDbLine
 10
1414.13
 20
299.9499999999998
 30
0.0
 11
1414.13
 21
300.3499999999997
 31
0.0
  0
LINE
  5
643
330
1F
100
AcDbEntity
  8
作業ﾚｲﾔ1
  6
Continuous
 62
     7
370
    18
100
AcDbLine
 10
1414.13
 20
300.7499999999997
 30
0.0
 11
1414.13
 21
302.7499999999997
 31
0.0
  0
LINE
  5
644
330
1F
100
AcDbEntity
  8
作業ﾚｲﾔ1
  6
Continuous
 62
     7
370
    18
100
AcDbLine
 10
1414.13
 20
303.1499999999997
 30
0.0
 11
1414.13
 21
303.5499999999997
 31
0.0
  0
LINE
  5
645
330
1F
100
AcDbEntity
  8
作業ﾚｲﾔ1
  6
Continuous
 62
     7
370
    18
100
AcDbLine
 10
1414.13
 20
303.9499999999996
 30
0.0
 11
1414.13
 21
305.9499999999996
 31
0.0
  0
LINE
  5
646
330
1F
100
AcDbEntity
  8
作業ﾚｲﾔ1
  6
Continuous
 62
     7
370
    18
100
AcDbLine
 10
1414.13
 20
306.3499999999996
 30
0.0
 11
1414.13
 21
306.7499999999996
 31
0.0
  0
LINE
  5
647
330
1F
100
AcDbEntity
  8
作業ﾚｲﾔ1
  6
Continuous
 62
     7
370
    18
100
AcDbLine
 10
1414.13
 20
307.1499999999996
 30
0.0
 11
1414.13
 21
308.7499999999995
 31
0.0
  0
LINE
  5
648
330
1F
100
AcDbEntity
  8
作業ﾚｲﾔ1
  6
Continuous
 62
     7
370
    18
100
AcDbLine
 10
1413.83
 20
308.75
 30
0.0
 11
1414.43
 21
308.75
 31
0.0
  0
LINE
  5
649
330
1F
100
AcDbEntity
  8
作業ﾚｲﾔ1
  6
Continuous
 62
     7
370
    18
100
AcDbLine
 10
1561.96
 20
275.8
 30
0.0
 11
1561.96
 21
274.8
 31
0.0
  0
TEXT
  5
64A
330
1F
100
AcDbEntity
  8
作業ﾚｲﾔ1
  6
Continuous
 62
     7
370
    13
100
AcDbText
 10
1590.103597862018
 20
272.6900698044892
 30
0.0
 40
1.915708812260537
  1
As
  7
ＭＳ ゴシック
 72
     1
 11
1591.348322369477
 21
273.6479242106195
 31
0.0
100
AcDbText
 73
     2
  0
LINE
  5
64B
330
1F
100
AcDbEntity
  8
測点名
  6
Continuous
 62
     7
370
    18
100
AcDbLine
 10
921.6300000000001
 20
350.0
 30
0.0
 11
940.1300000000001
 21
350.0
 31
0.0
  0
LINE
  5
64C
330
1F
100
AcDbEntity
  8
測点名
  6
Continuous
 62
     7
370
    18
100
AcDbLine
 10
921.6300000000001
 20
351.0
 30
0.0
 11
940.1300000000001
 21
351.0
 31
0.0
  0
TEXT
  5
64D
330
1F
100
AcDbEntity
  8
測点名
  6
Continuous
 62
     7
370
    13
100
AcDbText
 10
927.1458264776243
 20
352.7051575354455
 30
0.0
 40
3.831417624521073
  1
B4L
  7
ＭＳ ゴシック
 72
     1
 11
930.8800000000001
 21
352.005
 31
0.0
100
AcDbText
 73
     1
  0
LINE
  5
64E
330
1F
100
AcDbEntity
  8
中心線
  6
chain
 62
     7
370
    18
100
AcDbLine
 10
930.8800000000001
 20
256.9399999999999
 30
0.0
 11
930.8800000000001
 21
296.94
 31
0.0
  0
TEXT
  5
64F
330
1F
100
AcDbEntity
  8
ＧＨ
  6
Continuous
 62
     7
370
    13
100
AcDbText
 10
930.8800000000001
 20
342.3525787677227
 30
0.0
 40
1.915708812260537
  1
GH=2.69
  7
ＭＳ ゴシック
 11
930.8800000000001
 21
342.0025
 31
0.0
100
AcDbText
 73
     1
  0
TEXT
  5
650
330
1F
100
AcDbEntity
  8
ＰＨ
  6
Continuous
 62
     7
370
    13
100
AcDbText
 10
930.8800000000001
 20
345.3525787677227
 30
0.0
 40
1.915708812260537
  1
PH=2.69
  7
ＭＳ ゴシック
 11
930.8800000000001
 21
345.0025
 31
0.0
100
AcDbText
 73
     1
  0
LINE
  5
651
330
1F
100
AcDbEntity
  8
測点名
  6
Continuous
 62
     7
370
    18
100
AcDbLine
 10
1591.75
 20
350.0
 30
0.0
 11
1610.25
 21
350.0
 31
0.0
  0
LINE
  5
652
330
1F
100
AcDbEntity
  8
測点名
  6
Continuous
 62
     7
370
    18
100
AcDbLine
 10
1591.75
 20
351.0
 30
0.0
 11
1610.25
 21
351.0
 31
0.0
  0
TEXT
  5
653
330
1F
100
AcDbEntity
  8
測点名
  6
Continuous
 62
     7
370
    13
100
AcDbText
 10
1593.531652955248
 20
352.7051575354455
 30
0.0
 40
3.831417624521073
  1
BNO.4R
  7
ＭＳ ゴシック
 72
     1
 11
1601.0
 21
352.005
 31
0.0
100
AcDbText
 73
     1
  0
LINE
  5
654
330
1F
100
AcDbEntity
  8
中心線
  6
chain
 62
     7
370
    18
100
AcDbLine
 10
1601.0
 20
255.3399999999999
 30
0.0
 11
1601.0
 21
295.34
 31
0.0
  0
TEXT
  5
655
330
1F
100
AcDbEntity
  8
ＧＨ
  6
Continuous
 62
     7
370
    13
100
AcDbText
 10
1601.0
 20
342.3525787677227
 30
0.0
 40
1.915708812260537
  1
GH=2.53
  7
ＭＳ ゴシック
 11
1601.0
 21
342.0025
 31
0.0
100
AcDbText
 73
     1
  0
TEXT
  5
656
330
1F
100
AcDbEntity
  8
ＰＨ
  6
Continuous
 62
     7
370
    13
100
AcDbText
 10
1601.0
 20
345.3525787677227
 30
0.0
 40
1.915708812260537
  1
PH=2.53
  7
ＭＳ ゴシック
 11
1601.0
 21
345.0025
 31
0.0
100
AcDbText
 73
     1
  0
TEXT
  5
657
330
1F
100
AcDbEntity
  8
作業ﾚｲﾔ1
  6
Continuous
 62
     7
370
    13
100
AcDbText
 10
1009.39932971656
 20
423.7875745467625
 30
0.0
 40
1.915708812260537
  1
g
  7
ＭＳ ゴシック
 72
     1
 11
1010.021691970289
 21
424.7454289528927
 31
0.0
100
AcDbText
 73
     2
  0
TEXT
  5
658
330
1F
100
AcDbEntity
  8
作業ﾚｲﾔ1
  6
Continuous
 62
     7
370
    13
100
AcDbText
 10
1228.272834945189
 20
425.5750159202514
 30
0.0
 40
1.915708812260537
  1
g
  7
ＭＳ ゴシック
 72
     1
 11
1228.895197198919
 21
426.5328703263816
 31
0.0
100
AcDbText
 73
     2
  0
TEXT
  5
659
330
1F
100
AcDbEntity
  8
作業ﾚｲﾔ1
  6
Continuous
 62
     7
370
    13
100
AcDbText
 10
1442.590863757232
 20
426.2390587207884
 30
0.0
 40
1.915708812260537
  1
g
  7
ＭＳ ゴシック
 72
     1
 11
1443.213226010961
 21
427.1969131269187
 31
0.0
100
AcDbText
 73
     2
  0
LINE
  5
65A
330
1F
100
AcDbEntity
  8
作業ﾚｲﾔ1
  6
Continuous
 62
     7
370
    18
100
AcDbLine
 10
1414.85
 20
429.58
 30
0.0
 11
1414.85
 21
430.98
 31
0.0
  0
LINE
  5
65B
330
1F
100
AcDbEntity
  8
作業ﾚｲﾔ1
  6
Continuous
 62
     7
370
    18
100
AcDbLine
 10
1414.85
 20
431.3799999999999
 30
0.0
 11
1414.85
 21
431.7799999999999
 31
0.0
  0
LINE
  5
65C
330
1F
100
AcDbEntity
  8
作業ﾚｲﾔ1
  6
Continuous
 62
     7
370
    18
100
AcDbLine
 10
1414.85
 20
432.1799999999999
 30
0.0
 11
1414.85
 21
434.1799999999999
 31
0.0
  0
LINE
  5
65D
330
1F
100
AcDbEntity
  8
作業ﾚｲﾔ1
  6
Continuous
 62
     7
370
    18
100
AcDbLine
 10
1414.85
 20
434.5799999999999
 30
0.0
 11
1414.85
 21
434.9799999999998
 31
0.0
  0
LINE
  5
65E
330
1F
100
AcDbEntity
  8
作業ﾚｲﾔ1
  6
Continuous
 62
     7
370
    18
100
AcDbLine
 10
1414.85
 20
435.3799999999998
 30
0.0
 11
1414.85
 21
437.3799999999998
 31
0.0
  0
LINE
  5
65F
330
1F
100
AcDbEntity
  8
作業ﾚｲﾔ1
  6
Continuous
 62
     7
370
    18
100
AcDbLine
 10
1414.85
 20
437.7799999999998
 30
0.0
 11
1414.85
 21
438.1799999999998
 31
0.0
  0
LINE
  5
660
330
1F
100
AcDbEntity
  8
作業ﾚｲﾔ1
  6
Continuous
 62
     7
370
    18
100
AcDbLine
 10
1414.85
 20
438.5799999999998
 30
0.0
 11
1414.85
 21
440.5799999999998
 31
0.0
  0
LINE
  5
661
330
1F
100
AcDbEntity
  8
作業ﾚｲﾔ1
  6
Continuous
 62
     7
370
    18
100
AcDbLine
 10
1414.85
 20
440.9799999999997
 30
0.0
 11
1414.85
 21
441.3799999999997
 31
0.0
  0
LINE
  5
662
330
1F
100
AcDbEntity
  8
作業ﾚｲﾔ1
  6
Continuous
 62
     7
370
    18
100
AcDbLine
 10
1414.85
 20
441.7799999999997
 30
0.0
 11
1414.85
 21
443.7799999999997
 31
0.0
  0
LINE
  5
663
330
1F
100
AcDbEntity
  8
作業ﾚｲﾔ1
  6
Continuous
 62
     7
370
    18
100
AcDbLine
 10
1414.85
 20
444.1799999999997
 30
0.0
 11
1414.85
 21
444.5799999999996
 31
0.0
  0
LINE
  5
664
330
1F
100
AcDbEntity
  8
作業ﾚｲﾔ1
  6
Continuous
 62
     7
370
    18
100
AcDbLine
 10
1414.85
 20
444.9799999999996
 30
0.0
 11
1414.85
 21
446.9799999999996
 31
0.0
  0
LINE
  5
665
330
1F
100
AcDbEntity
  8
作業ﾚｲﾔ1
  6
Continuous
 62
     7
370
    18
100
AcDbLine
 10
1414.85
 20
447.3799999999996
 30
0.0
 11
1414.85
 21
447.7799999999996
 31
0.0
  0
LINE
  5
666
330
1F
100
AcDbEntity
  8
作業ﾚｲﾔ1
  6
Continuous
 62
     7
370
    18
100
AcDbLine
 10
1414.85
 20
448.1799999999996
 30
0.0
 11
1414.85
 21
449.5799999999995
 31
0.0
  0
LINE
  5
667
330
1F
100
AcDbEntity
  8
作業ﾚｲﾔ1
  6
Continuous
 62
     7
370
    18
100
AcDbLine
 10
1414.55
 20
449.58
 30
0.0
 11
1415.15
 21
449.58
 31
0.0
  0
LINE
  5
668
330
1F
100
AcDbEntity
  8
作業ﾚｲﾔ1
  6
Continuous
 62
     7
370
    18
100
AcDbLine
 10
1560.4
 20
425.86
 30
0.0
 11
1560.4
 21
424.86
 31
0.0
  0
LINE
  5
669
330
1F
100
AcDbEntity
  8
作業ﾚｲﾔ1
  6
Continuous
 62
     7
370
    18
100
AcDbLine
 10
1562.47
 20
426.0
 30
0.0
 11
1562.47
 21
424.86
 31
0.0
  0
TEXT
  5
66A
330
1F
100
AcDbEntity
  8
作業ﾚｲﾔ1
  6
Continuous
 62
     7
370
    13
100
AcDbText
 10
922.9637795299582
 20
423.5177647220951
 30
0.0
 40
1.915708812260537
  1
As
  7
ＭＳ ゴシック
 72
     1
 11
924.2085040374168
 21
424.4756191282253
 31
0.0
100
AcDbText
 73
     2
  0
TEXT
  5
66B
330
1F
100
AcDbEntity
  8
作業ﾚｲﾔ1
  6
Continuous
 62
     7
370
    13
100
AcDbText
 10
1593.348170810706
 20
422.0353789513725
 30
0.0
 40
1.915708812260537
  1
As
  7
ＭＳ ゴシック
 72
     1
 11
1594.592895318165
 21
422.9932333575027
 31
0.0
100
AcDbText
 73
     2
  0
LINE
  5
66C
330
1F
100
AcDbEntity
  8
作業ﾚｲﾔ1
  6
Continuous
 62
     7
370
    18
100
AcDbLine
 10
1623.15
 20
424.72
 30
0.0
 11
1623.15
 21
423.72
 31
0.0
  0
LINE
  5
66D
330
1F
100
AcDbEntity
  8
作業ﾚｲﾔ1
  6
Continuous
 62
     7
370
    18
100
AcDbLine
 10
1618.53
 20
424.73
 30
0.0
 11
1618.53
 21
423.72
 31
0.0
  0
LINE
  5
66E
330
1F
100
AcDbEntity
  8
作業ﾚｲﾔ1
  6
Continuous
 62
     7
370
    18
100
AcDbLine
 10
1625.08
 20
425.55
 30
0.0
 11
1625.08
 21
423.72
 31
0.0
  0
TEXT
  5
66F
330
1F
100
AcDbEntity
  8
作業ﾚｲﾔ1
  6
Continuous
 62
     7
370
    13
100
AcDbText
 10
1627.945758895179
 20
422.898907860713
 30
0.0
 40
1.915708812260537
  1
g
  7
ＭＳ ゴシック
 72
     1
 11
1628.568121148908
 21
423.8567622668432
 31
0.0
100
AcDbText
 73
     2
  0
LINE
  5
670
330
1F
100
AcDbEntity
  8
作業ﾚｲﾔ1
  6
Continuous
 62
     7
370
    18
100
AcDbLine
 10
935.77
 20
428.33
 30
0.0
 11
935.77
 21
429.98
 31
0.0
  0
LINE
  5
671
330
1F
100
AcDbEntity
  8
作業ﾚｲﾔ1
  6
Continuous
 62
     7
370
    18
100
AcDbLine
 10
935.77
 20
430.3799999999999
 30
0.0
 11
935.77
 21
430.7799999999999
 31
0.0
  0
LINE
  5
672
330
1F
100
AcDbEntity
  8
作業ﾚｲﾔ1
  6
Continuous
 62
     7
370
    18
100
AcDbLine
 10
935.77
 20
431.1799999999999
 30
0.0
 11
935.77
 21
433.1799999999999
 31
0.0
  0
LINE
  5
673
330
1F
100
AcDbEntity
  8
作業ﾚｲﾔ1
  6
Continuous
 62
     7
370
    18
100
AcDbLine
 10
935.77
 20
433.5799999999999
 30
0.0
 11
935.77
 21
433.9799999999998
 31
0.0
  0
LINE
  5
674
330
1F
100
AcDbEntity
  8
作業ﾚｲﾔ1
  6
Continuous
 62
     7
370
    18
100
AcDbLine
 10
935.77
 20
434.3799999999998
 30
0.0
 11
935.77
 21
436.3799999999998
 31
0.0
  0
LINE
  5
675
330
1F
100
AcDbEntity
  8
作業ﾚｲﾔ1
  6
Continuous
 62
     7
370
    18
100
AcDbLine
 10
935.77
 20
436.7799999999998
 30
0.0
 11
935.77
 21
437.1799999999998
 31
0.0
  0
LINE
  5
676
330
1F
100
AcDbEntity
  8
作業ﾚｲﾔ1
  6
Continuous
 62
     7
370
    18
100
AcDbLine
 10
935.77
 20
437.5799999999998
 30
0.0
 11
935.77
 21
439.5799999999998
 31
0.0
  0
LINE
  5
677
330
1F
100
AcDbEntity
  8
作業ﾚｲﾔ1
  6
Continuous
 62
     7
370
    18
100
AcDbLine
 10
935.77
 20
439.9799999999997
 30
0.0
 11
935.77
 21
440.3799999999997
 31
0.0
  0
LINE
  5
678
330
1F
100
AcDbEntity
  8
作業ﾚｲﾔ1
  6
Continuous
 62
     7
370
    18
100
AcDbLine
 10
935.77
 20
440.7799999999997
 30
0.0
 11
935.77
 21
442.7799999999997
 31
0.0
  0
LINE
  5
679
330
1F
100
AcDbEntity
  8
作業ﾚｲﾔ1
  6
Continuous
 62
     7
370
    18
100
AcDbLine
 10
935.77
 20
443.1799999999997
 30
0.0
 11
935.77
 21
443.5799999999996
 31
0.0
  0
LINE
  5
67A
330
1F
100
AcDbEntity
  8
作業ﾚｲﾔ1
  6
Continuous
 62
     7
370
    18
100
AcDbLine
 10
935.77
 20
443.9799999999996
 30
0.0
 11
935.77
 21
445.9799999999996
 31
0.0
  0
LINE
  5
67B
330
1F
100
AcDbEntity
  8
作業ﾚｲﾔ1
  6
Continuous
 62
     7
370
    18
100
AcDbLine
 10
935.77
 20
446.3799999999996
 30
0.0
 11
935.77
 21
446.7799999999996
 31
0.0
  0
LINE
  5
67C
330
1F
100
AcDbEntity
  8
作業ﾚｲﾔ1
  6
Continuous
 62
     7
370
    18
100
AcDbLine
 10
935.77
 20
447.1799999999996
 30
0.0
 11
935.77
 21
448.8299999999995
 31
0.0
  0
LINE
  5
67D
330
1F
100
AcDbEntity
  8
作業ﾚｲﾔ1
  6
Continuous
 62
     7
370
    18
100
AcDbLine
 10
935.4700000000005
 20
448.83
 30
0.0
 11
936.0699999999995
 21
448.83
 31
0.0
  0
LINE
  5
67E
330
1F
100
AcDbEntity
  8
作業ﾚｲﾔ1
  6
Continuous
 62
     7
370
    18
100
AcDbLine
 10
934.81
 20
426.57
 30
0.0
 11
934.81
 21
425.57
 31
0.0
  0
LINE
  5
67F
330
1F
100
AcDbEntity
  8
作業ﾚｲﾔ1
  6
Continuous
 62
     7
370
    18
100
AcDbLine
 10
936.73
 20
426.93
 30
0.0
 11
936.73
 21
425.57
 31
0.0
  0
LINE
  5
680
330
1F
100
AcDbEntity
  8
測点名
  6
Continuous
 62
     7
370
    18
100
AcDbLine
 10
905.81
 20
500.0
 30
0.0
 11
924.31
 21
500.0
 31
0.0
  0
LINE
  5
681
330
1F
100
AcDbEntity
  8
測点名
  6
Continuous
 62
     7
370
    18
100
AcDbLine
 10
905.81
 20
501.0
 30
0.0
 11
924.31
 21
501.0
 31
0.0
  0
TEXT
  5
682
330
1F
100
AcDbEntity
  8
測点名
  6
Continuous
 62
     7
370
    13
100
AcDbText
 10
911.3258264776241
 20
502.7051575354455
 30
0.0
 40
3.831417624521073
  1
B5L
  7
ＭＳ ゴシック
 72
     1
 11
915.06
 21
502.005
 31
0.0
100
AcDbText
 73
     1
  0
LINE
  5
683
330
1F
100
AcDbEntity
  8
中心線
  6
chain
 62
     7
370
    18
100
AcDbLine
 10
915.06
 20
406.83
 30
0.0
 11
915.06
 21
446.83
 31
0.0
  0
TEXT
  5
684
330
1F
100
AcDbEntity
  8
ＧＨ
  6
Continuous
 62
     7
370
    13
100
AcDbText
 10
915.06
 20
492.3525787677227
 30
0.0
 40
1.915708812260537
  1
GH=2.68
  7
ＭＳ ゴシック
 11
915.06
 21
492.0025
 31
0.0
100
AcDbText
 73
     1
  0
TEXT
  5
685
330
1F
100
AcDbEntity
  8
ＰＨ
  6
Continuous
 62
     7
370
    13
100
AcDbText
 10
915.06
 20
495.3525787677227
 30
0.0
 40
1.915708812260537
  1
PH=2.68
  7
ＭＳ ゴシック
 11
915.06
 21
495.0025
 31
0.0
100
AcDbText
 73
     1
  0
LINE
  5
686
330
1F
100
AcDbEntity
  8
測点名
  6
Continuous
 62
     7
370
    18
100
AcDbLine
 10
1591.75
 20
500.0
 30
0.0
 11
1610.25
 21
500.0
 31
0.0
  0
LINE
  5
687
330
1F
100
AcDbEntity
  8
測点名
  6
Continuous
 62
     7
370
    18
100
AcDbLine
 10
1591.75
 20
501.0
 30
0.0
 11
1610.25
 21
501.0
 31
0.0
  0
TEXT
  5
688
330
1F
100
AcDbEntity
  8
測点名
  6
Continuous
 62
     7
370
    13
100
AcDbText
 10
1593.531652955248
 20
502.7051575354455
 30
0.0
 40
3.831417624521073
  1
BNO.5R
  7
ＭＳ ゴシック
 72
     1
 11
1601.0
 21
502.005
 31
0.0
100
AcDbText
 73
     1
  0
LINE
  5
689
330
1F
100
AcDbEntity
  8
中心線
  6
chain
 62
     7
370
    18
100
AcDbLine
 10
1601.0
 20
405.24
 30
0.0
 11
1601.0
 21
445.24
 31
0.0
  0
TEXT
  5
68A
330
1F
100
AcDbEntity
  8
ＧＨ
  6
Continuous
 62
     7
370
    13
100
AcDbText
 10
1601.0
 20
492.3525787677227
 30
0.0
 40
1.915708812260537
  1
GH=2.52
  7
ＭＳ ゴシック
 11
1601.0
 21
492.0025
 31
0.0
100
AcDbText
 73
     1
  0
TEXT
  5
68B
330
1F
100
AcDbEntity
  8
ＰＨ
  6
Continuous
 62
     7
370
    13
100
AcDbText
 10
1601.0
 20
495.3525787677227
 30
0.0
 40
1.915708812260537
  1
PH=2.52
  7
ＭＳ ゴシック
 11
1601.0
 21
495.0025
 31
0.0
100
AcDbText
 73
     1
  0
TEXT
  5
68C
330
1F
100
AcDbEntity
  8
作業ﾚｲﾔ1
  6
Continuous
 62
     7
370
    13
100
AcDbText
 10
1221.975826477624
 20
135.5821507101078
 30
0.0
 40
1.915708812260537
  1
プール
  7
ＭＳ ゴシック
 72
     1
 11
1225.71
 21
136.540005116238
 31
0.0
100
AcDbText
 73
     2
  0
LINE
  5
68D
330
1F
100
AcDbEntity
  8
作業ﾚｲﾔ1
  6
Continuous
 62
     7
370
    18
100
AcDbLine
 10
1225.71
 20
133.09
 30
0.0
 11
1226.910000000068
 21
134.7700000004813
 31
0.0
  0
LINE
  5
68E
330
1F
100
AcDbEntity
  8
作業ﾚｲﾔ1
  6
Continuous
 62
     7
370
    18
100
AcDbLine
 10
1226.910000000068
 20
134.7700000004813
 30
0.0
 11
1224.510000000068
 21
134.7700000004813
 31
0.0
  0
LINE
  5
68F
330
1F
100
AcDbEntity
  8
作業ﾚｲﾔ1
  6
Continuous
 62
     7
370
    18
100
AcDbLine
 10
1224.510000000068
 20
134.7700000004813
 30
0.0
 11
1225.71
 21
133.09
 31
0.0
  0
LINE
  5
690
330
1F
100
AcDbEntity
  8
作業ﾚｲﾔ1
  6
Continuous
 62
     7
370
    18
100
AcDbLine
 10
1226.910000000068
 20
132.6900000000001
 30
0.0
 11
1224.510000000068
 21
132.6900000000001
 31
0.0
  0
LINE
  5
691
330
1F
100
AcDbEntity
  8
作業ﾚｲﾔ1
  6
Continuous
 62
     7
370
    18
100
AcDbLine
 10
1226.30546164917
 20
132.2900000000001
 30
0.0
 11
1225.114538350898
 21
132.2900000000001
 31
0.0
  0
LINE
  5
692
330
1F
100
AcDbEntity
  8
作業ﾚｲﾔ1
  6
Continuous
 62
     7
370
    18
100
AcDbLine
 10
1226.019747363521
 20
131.8900000000001
 30
0.0
 11
1225.400252636514
 21
131.8900000000001
 31
0.0
  0
LINE
  5
693
330
1F
100
AcDbEntity
  8
作業ﾚｲﾔ1
  6
Continuous
 62
     7
370
    18
100
AcDbLine
 10
1100.8
 20
133.09
 30
0.0
 11
1350.62
 21
133.09
 31
0.0
  0
LINE
  5
694
330
1F
100
AcDbEntity
  8
作業ﾚｲﾔ1
  6
Continuous
 62
     7
370
    18
100
AcDbLine
 10
1101.38
 20
283.09
 30
0.0
 11
1351.15
 21
283.09
 31
0.0
  0
TEXT
  5
695
330
1F
100
AcDbEntity
  8
作業ﾚｲﾔ1
  6
Continuous
 62
     7
370
    13
100
AcDbText
 10
1222.530826477624
 20
285.5821507101078
 30
0.0
 40
1.915708812260537
  1
プール
  7
ＭＳ ゴシック
 72
     1
 11
1226.265
 21
286.540005116238
 31
0.0
100
AcDbText
 73
     2
  0
LINE
  5
696
330
1F
100
AcDbEntity
  8
作業ﾚｲﾔ1
  6
Continuous
 62
     7
370
    18
100
AcDbLine
 10
1226.265
 20
283.09
 30
0.0
 11
1227.465000000068
 21
284.7700000004813
 31
0.0
  0
LINE
  5
697
330
1F
100
AcDbEntity
  8
作業ﾚｲﾔ1
  6
Continuous
 62
     7
370
    18
100
AcDbLine
 10
1227.465000000068
 20
284.7700000004813
 30
0.0
 11
1225.065000000068
 21
284.7700000004813
 31
0.0
  0
LINE
  5
698
330
1F
100
AcDbEntity
  8
作業ﾚｲﾔ1
  6
Continuous
 62
     7
370
    18
100
AcDbLine
 10
1225.065000000068
 20
284.7700000004813
 30
0.0
 11
1226.265
 21
283.09
 31
0.0
  0
LINE
  5
699
330
1F
100
AcDbEntity
  8
作業ﾚｲﾔ1
  6
Continuous
 62
     7
370
    18
100
AcDbLine
 10
1227.465000000068
 20
282.69
 30
0.0
 11
1225.065000000068
 21
282.69
 31
0.0
  0
LINE
  5
69A
330
1F
100
AcDbEntity
  8
作業ﾚｲﾔ1
  6
Continuous
 62
     7
370
    18
100
AcDbLine
 10
1226.860461649169
 20
282.29
 30
0.0
 11
1225.669538350898
 21
282.29
 31
0.0
  0
LINE
  5
69B
330
1F
100
AcDbEntity
  8
作業ﾚｲﾔ1
  6
Continuous
 62
     7
370
    18
100
AcDbLine
 10
1226.574747363521
 20
281.89
 30
0.0
 11
1225.955252636514
 21
281.89
 31
0.0
  0
LINE
  5
69C
330
1F
100
AcDbEntity
  8
測点名
  6
Continuous
 62
     7
370
    18
100
AcDbLine
 10
1470.13
 20
350.0
 30
0.0
 11
1488.63
 21
350.0
 31
0.0
  0
LINE
  5
69D
330
1F
100
AcDbEntity
  8
測点名
  6
Continuous
 62
     7
370
    18
100
AcDbLine
 10
1470.13
 20
351.0
 30
0.0
 11
1488.63
 21
351.0
 31
0.0
  0
TEXT
  5
69E
330
1F
100
AcDbEntity
  8
測点名
  6
Continuous
 62
     7
370
    13
100
AcDbText
 10
1474.401101970166
 20
352.7051575354455
 30
0.0
 40
3.831417624521073
  1
A5B4
  7
ＭＳ ゴシック
 72
     1
 11
1479.38
 21
352.005
 31
0.0
100
AcDbText
 73
     1
  0
LINE
  5
69F
330
1F
100
AcDbEntity
  8
中心線
  6
chain
 62
     7
370
    18
100
AcDbLine
 10
1479.38
 20
267.8199999999999
 30
0.0
 11
1479.38
 21
307.82
 31
0.0
  0
TEXT
  5
6A0
330
1F
100
AcDbEntity
  8
ＧＨ
  6
Continuous
 62
     7
370
    13
100
AcDbText
 10
1479.38
 20
342.3525787677227
 30
0.0
 40
1.915708812260537
  1
GH=3.78
  7
ＭＳ ゴシック
 11
1479.38
 21
342.0025
 31
0.0
100
AcDbText
 73
     1
  0
TEXT
  5
6A1
330
1F
100
AcDbEntity
  8
ＰＨ
  6
Continuous
 62
     7
370
    13
100
AcDbText
 10
1479.38
 20
345.3525787677227
 30
0.0
 40
1.915708812260537
  1
PH=3.78
  7
ＭＳ ゴシック
 11
1479.38
 21
345.0025
 31
0.0
100
AcDbText
 73
     1
  0
TEXT
  5
6A2
330
1F
100
AcDbEntity
  8
ＧＨ
  6
Continuous
 62
     7
370
    13
100
AcDbText
 10
1301.0
 20
189.3525787677227
 30
0.0
 40
1.915708812260537
  1
FH=
  7
ＭＳ ゴシック
 11
1301.0
 21
189.0025
 31
0.0
100
AcDbText
 73
     1
  0
TEXT
  5
6A3
330
1F
100
AcDbEntity
  8
ＧＨ
  6
Continuous
 62
     7
370
    13
100
AcDbText
 10
1301.0
 20
339.3525787677227
 30
0.0
 40
1.915708812260537
  1
FH=
  7
ＭＳ ゴシック
 11
1301.0
 21
339.0025
 31
0.0
100
AcDbText
 73
     1
  0
TEXT
  5
6A4
330
1F
100
AcDbEntity
  8
ＧＨ
  6
Continuous
 62
     7
370
    13
100
AcDbText
 10
1301.0
 20
489.3525787677227
 30
0.0
 40
1.915708812260537
  1
FH=
  7
ＭＳ ゴシック
 11
1301.0
 21
489.0025
 31
0.0
100
AcDbText
 73
     1
  0
TEXT
  5
6A5
330
1F
100
AcDbEntity
  8
ＧＨ
  6
Continuous
 62
     7
370
    13
100
AcDbText
 10
946.6800000000001
 20
189.3525787677227
 30
0.0
 40
1.915708812260537
  1
FH=
  7
ＭＳ ゴシック
 11
946.6800000000001
 21
189.0025
 31
0.0
100
AcDbText
 73
     1
  0
TEXT
  5
6A6
330
1F
100
AcDbEntity
  8
ＧＨ
  6
Continuous
 62
     7
370
    13
100
AcDbText
 10
1601.0
 20
189.4025787677228
 30
0.0
 40
1.915708812260537
  1
FH=
  7
ＭＳ ゴシック
 11
1601.0
 21
189.0525
 31
0.0
100
AcDbText
 73
     1
  0
TEXT
  5
6A7
330
1F
100
AcDbEntity
  8
ＧＨ
  6
Continuous
 62
     7
370
    13
100
AcDbText
 10
930.8800000000001
 20
339.3525787677227
 30
0.0
 40
1.915708812260537
  1
FH=
  7
ＭＳ ゴシック
 11
930.8800000000001
 21
339.0025
 31
0.0
100
AcDbText
 73
     1
  0
TEXT
  5
6A8
330
1F
100
AcDbEntity
  8
ＧＨ
  6
Continuous
 62
     7
370
    13
100
AcDbText
 10
1601.0
 20
339.3525787677227
 30
0.0
 40
1.915708812260537
  1
FH=
  7
ＭＳ ゴシック
 11
1601.0
 21
339.0025
 31
0.0
100
AcDbText
 73
     1
  0
TEXT
  5
6A9
330
1F
100
AcDbEntity
  8
ＧＨ
  6
Continuous
 62
     7
370
    13
100
AcDbText
 10
915.06
 20
489.3525787677227
 30
0.0
 40
1.915708812260537
  1
FH=
  7
ＭＳ ゴシック
 11
915.06
 21
489.0025
 31
0.0
100
AcDbText
 73
     1
  0
TEXT
  5
6AA
330
1F
100
AcDbEntity
  8
ＧＨ
  6
Continuous
 62
     7
370
    13
100
AcDbText
 10
1601.0
 20
489.3525787677227
 30
0.0
 40
1.915708812260537
  1
FH=
  7
ＭＳ ゴシック
 11
1601.0
 21
489.0025
 31
0.0
100
AcDbText
 73
     1
  0
TEXT
  5
6AB
330
1F
100
AcDbEntity
  8
ＧＨ
  6
Continuous
 62
     7
370
    13
100
AcDbText
 10
1479.38
 20
339.3525787677227
 30
0.0
 40
1.915708812260537
  1
FH=
  7
ＭＳ ゴシック
 11
1479.38
 21
339.0025
 31
0.0
100
AcDbText
 73
     1
  0
TEXT
  5
6AC
330
1F
100
AcDbEntity
  8
作業ﾚｲﾔ7
  6
Continuous
 62
     7
370
    35
100
AcDbText
 10
1637.643464223895
 20
26.25000383142241
 30
0.0
 40
2.681992337164751
  1
1/100
  7
ＭＳ ゴシック
 72
     1
 11
1642.0
 21
27.59100000000478
 31
0.0
100
AcDbText
 73
     2
  0
TEXT
  5
6AD
330
1F
100
AcDbEntity
  8
作業ﾚｲﾔ7
  6
Continuous
 62
     7
370
    35
100
AcDbText
 10
1644.455651127767
 20
43.80717496537839
 30
0.0
 40
2.681992337164751
  1
横須賀市久里浜6丁目642番6
  7
ＭＳ ゴシック
 72
     1
 11
1666.238330008293
 21
45.14817113396077
 31
0.0
100
AcDbText
 73
     2
  0
TEXT
  5
6AE
330
1F
100
AcDbEntity
  8
作業ﾚｲﾔ7
  6
Continuous
 62
     7
370
    35
100
AcDbText
 10
1650.727841767398
 20
54.11008184837338
 30
0.0
 40
2.681992337164751
  1
久里浜公園測量業務
  7
ＭＳ ゴシック
 72
     1
 11
1666.411370561377
 21
55.45107801695576
 31
0.0
100
AcDbText
 73
     2
  0
TEXT
  5
6AF
330
1F
100
AcDbEntity
  8
作業ﾚｲﾔ7
  6
Continuous
 62
     7
370
    35
100
AcDbText
 10
1675.673006982126
 20
26.25000383142241
 30
0.0
 40
2.681992337164751
  1
令和4年3月3日
  7
ＭＳ ゴシック
 72
     1
 11
1687.0
 21
27.59100000000478
 31
0.0
100
AcDbText
 73
     2
  0
LINE
  5
6B0
330
1F
100
AcDbEntity
  8
作業ﾚｲﾔ1
  6
Continuous
 62
     7
370
    13
100
AcDbLine
 10
1048.37290956808
 20
136.3239916081698
 30
0.0
 11
1050.177493000024
 21
130.5246992182929
 31
0.0
  0
LINE
  5
6B1
330
1F
100
AcDbEntity
  8
作業ﾚｲﾔ1
  6
Continuous
 62
     7
370
    13
100
AcDbLine
 10
1048.37290956808
 20
136.3239916081698
 30
0.0
 11
1049.444570497907
 21
134.5628718361264
 31
0.0
  0
TEXT
  5
6B2
330
1F
100
AcDbEntity
  8
作業ﾚｲﾔ1
  6
Continuous
 62
     7
370
    13
100
AcDbText
 10
1049.753783724424
 20
127.8268191346541
 30
0.0
 40
1.915708812260537
  1
縁石
  7
ＭＳ ゴシック
 11
1049.753783724424
 21
128.7846735407844
 31
0.0
100
AcDbText
 73
     2
  0
LINE
  5
6B3
330
1F
100
AcDbEntity
  8
作業ﾚｲﾔ1
  6
Continuous
 62
     7
370
    13
100
AcDbLine
 10
972.3121914069402
 20
119.3340052188553
 30
0.0
 11
968.6902359325652
 21
111.8869939631311
 31
0.0
  0
LINE
  5
6B4
330
1F
100
AcDbEntity
  8
作業ﾚｲﾔ1
  6
Continuous
 62
     7
370
    13
100
AcDbLine
 10
972.3121914069402
 20
119.3340052188553
 30
0.0
 11
970.9877993693456
 21
117.7541363221567
 31
0.0
  0
TEXT
  5
6B5
330
1F
100
AcDbEntity
  8
作業ﾚｲﾔ1
  6
Continuous
 62
     7
370
    13
100
AcDbText
 10
956.1566300235494
 20
108.704961932697
 30
0.0
 40
1.915708812260537
  1
消火栓φ0.71
  7
ＭＳ ゴシック
 72
     2
 11
971.0933241130529
 21
109.6628163388273
 31
0.0
100
AcDbText
 73
     2
  0
LINE
  5
6B6
330
1F
100
AcDbEntity
  8
作業ﾚｲﾔ1
  6
Continuous
 62
     7
370
    13
100
AcDbLine
 10
1411.326552031063
 20
136.3022480144563
 30
0.0
 11
1409.521968599119
 21
130.5029556245794
 31
0.0
  0
LINE
  5
6B7
330
1F
100
AcDbEntity
  8
作業ﾚｲﾔ1
  6
Continuous
 62
     7
370
    13
100
AcDbLine
 10
1411.326552031063
 20
136.3022480144563
 30
0.0
 11
1410.254891101236
 21
134.5411282424127
 31
0.0
  0
TEXT
  5
6B8
330
1F
100
AcDbEntity
  8
作業ﾚｲﾔ1
  6
Continuous
 62
     7
370
    13
100
AcDbText
 10
1406.008843311637
 20
127.7463930309962
 30
0.0
 40
1.915708812260537
  1
縁石
  7
ＭＳ ゴシック
 72
     2
 11
1410.987741341472
 21
128.7042474371265
 31
0.0
100
AcDbText
 73
     2
  0
LINE
  5
6B9
330
1F
100
AcDbEntity
  8
作業ﾚｲﾔ1
  6
Continuous
 62
     7
370
    13
100
AcDbLine
 10
1458.983662950902
 20
136.8292745054706
 30
0.0
 11
1457.179079518958
 21
131.0299821155937
 31
0.0
  0
LINE
  5
6BA
330
1F
100
AcDbEntity
  8
作業ﾚｲﾔ1
  6
Continuous
 62
     7
370
    13
100
AcDbLine
 10
1458.983662950902
 20
136.8292745054706
 30
0.0
 11
1457.912002021075
 21
135.0681547334271
 31
0.0
  0
TEXT
  5
6BB
330
1F
100
AcDbEntity
  8
作業ﾚｲﾔ1
  6
Continuous
 62
     7
370
    13
100
AcDbText
 10
1453.994572216825
 20
128.27269512324
 30
0.0
 40
1.915708812260537
  1
縁石
  7
ＭＳ ゴシック
 72
     2
 11
1458.97347024666
 21
129.2305495293703
 31
0.0
100
AcDbText
 73
     2
  0
LINE
  5
6BC
330
1F
100
AcDbEntity
  8
作業ﾚｲﾔ1
  6
Continuous
 62
     7
370
    13
100
AcDbLine
 10
1483.972758012132
 20
136.7941462622721
 30
0.0
 11
1485.777341444076
 21
130.9948538723952
 31
0.0
  0
LINE
  5
6BD
330
1F
100
AcDbEntity
  8
作業ﾚｲﾔ1
  6
Continuous
 62
     7
370
    13
100
AcDbLine
 10
1483.972758012132
 20
136.7941462622721
 30
0.0
 11
1485.044418941959
 21
135.0330264902287
 31
0.0
  0
TEXT
  5
6BE
330
1F
100
AcDbEntity
  8
作業ﾚｲﾔ1
  6
Continuous
 62
     7
370
    13
100
AcDbText
 10
1485.147504194944
 20
127.892889489662
 30
0.0
 40
1.915708812260537
  1
縁石
  7
ＭＳ ゴシック
 11
1485.147504194944
 21
128.8507438957922
 31
0.0
100
AcDbText
 73
     2
  0
TEXT
  5
6BF
330
1F
100
AcDbEntity
  8
作業ﾚｲﾔ1
  6
Continuous
 62
     7
370
    13
100
AcDbText
 10
1070.286617151786
 20
132.6893839353085
 30
0.0
 40
1.915708812260537
  1
Co
  7
ＭＳ ゴシック
 72
     1
 11
1071.531341659245
 21
133.6472383414388
 31
0.0
100
AcDbText
 73
     2
  0
TEXT
  5
6C0
330
1F
100
AcDbEntity
  8
作業ﾚｲﾔ1
  6
Continuous
 62
     7
370
    13
100
AcDbText
 10
1061.062575343994
 20
129.8011627358349
 30
0.0
 40
1.915708812260537
  1
(Co上1㎝厚マット)
  7
ＭＳ ゴシック
 72
     1
 11
1071.642733657392
 21
130.7590171419652
 31
0.0
100
AcDbText
 73
     2
  0
TEXT
  5
6C1
330
1F
100
AcDbEntity
  8
作業ﾚｲﾔ1
  6
Continuous
 62
     7
370
    13
100
AcDbText
 10
1380.777185674133
 20
132.3620841698248
 30
0.0
 40
1.915708812260537
  1
Co
  7
ＭＳ ゴシック
 72
     1
 11
1382.021910181591
 21
133.3199385759551
 31
0.0
100
AcDbText
 73
     2
  0
TEXT
  5
6C2
330
1F
100
AcDbEntity
  8
作業ﾚｲﾔ1
  6
Continuous
 62
     7
370
    13
100
AcDbText
 10
1371.55314386634
 20
129.4738629703513
 30
0.0
 40
1.915708812260537
  1
(Co上1㎝厚マット)
  7
ＭＳ ゴシック
 72
     1
 11
1382.133302179738
 21
130.4317173764816
 31
0.0
100
AcDbText
 73
     2
  0
LINE
  5
6C3
330
1F
100
AcDbEntity
  8
作業ﾚｲﾔ1
  6
Continuous
 62
     7
370
    13
100
AcDbLine
 10
1049.748967909164
 20
286.3162762365998
 30
0.0
 11
1051.553551341108
 21
280.516983846723
 31
0.0
  0
LINE
  5
6C4
330
1F
100
AcDbEntity
  8
作業ﾚｲﾔ1
  6
Continuous
 62
     7
370
    13
100
AcDbLine
 10
1049.748967909164
 20
286.3162762365998
 30
0.0
 11
1050.820628838991
 21
284.5551564645564
 31
0.0
  0
TEXT
  5
6C5
330
1F
100
AcDbEntity
  8
作業ﾚｲﾔ1
  6
Continuous
 62
     7
370
    13
100
AcDbText
 10
1049.456518935693
 20
278.031638966489
 30
0.0
 40
1.915708812260537
  1
縁石
  7
ＭＳ ゴシック
 11
1049.456518935693
 21
278.9894933726193
 31
0.0
100
AcDbText
 73
     2
  0
LINE
  5
6C6
330
1F
100
AcDbEntity
  8
作業ﾚｲﾔ1
  6
Continuous
 62
     7
370
    13
100
AcDbLine
 10
1412.001340357038
 20
286.6176686707506
 30
0.0
 11
1413.805923788982
 21
280.8183762808737
 31
0.0
  0
LINE
  5
6C7
330
1F
100
AcDbEntity
  8
作業ﾚｲﾔ1
  6
Continuous
 62
     7
370
    13
100
AcDbLine
 10
1412.001340357038
 20
286.6176686707506
 30
0.0
 11
1413.073001286865
 21
284.8565488987072
 31
0.0
  0
TEXT
  5
6C8
330
1F
100
AcDbEntity
  8
作業ﾚｲﾔ1
  6
Continuous
 62
     7
370
    13
100
AcDbText
 10
1412.169542553919
 20
277.8098596054533
 30
0.0
 40
1.915708812260537
  1
縁石
  7
ＭＳ ゴシック
 11
1412.169542553919
 21
278.7677140115836
 31
0.0
100
AcDbText
 73
     2
  0
LINE
  5
6C9
330
1F
100
AcDbEntity
  8
作業ﾚｲﾔ1
  6
Continuous
 62
     7
370
    13
100
AcDbLine
 10
1419.245251305787
 20
286.8433356784998
 30
0.0
 11
1421.049834737732
 21
281.0440432886229
 31
0.0
  0
LINE
  5
6CA
330
1F
100
AcDbEntity
  8
作業ﾚｲﾔ1
  6
Continuous
 62
     7
370
    13
100
AcDbLine
 10
1419.245251305787
 20
286.8433356784998
 30
0.0
 11
1420.316912235614
 21
285.0822159064564
 31
0.0
  0
TEXT
  5
6CB
330
1F
100
AcDbEntity
  8
作業ﾚｲﾔ1
  6
Continuous
 62
     7
370
    13
100
AcDbText
 10
1420.243125164833
 20
277.9726334484153
 30
0.0
 40
1.915708812260537
  1
縁石
  7
ＭＳ ゴシック
 11
1420.243125164833
 21
278.9304878545456
 31
0.0
100
AcDbText
 73
     2
  0
LINE
  5
6CC
330
1F
100
AcDbEntity
  8
作業ﾚｲﾔ1
  6
Continuous
 62
     7
370
    13
100
AcDbLine
 10
1533.782431692305
 20
284.9960219175086
 30
0.0
 11
1536.918465210842
 21
287.7692742198158
 31
0.0
  0
LINE
  5
6CD
330
1F
100
AcDbEntity
  8
作業ﾚｲﾔ1
  6
Continuous
 62
     7
370
    13
100
AcDbLine
 10
1533.782431692305
 20
284.9960219175086
 30
0.0
 11
1534.949421026579
 21
286.6954735625073
 31
0.0
  0
TEXT
  5
6CE
330
1F
100
AcDbEntity
  8
作業ﾚｲﾔ1
  6
Continuous
 62
     7
370
    13
100
AcDbText
 10
1537.369756765499
 20
287.6698851428745
 30
0.0
 40
1.915708812260537
  1
RC
  7
ＭＳ ゴシック
 11
1537.369756765499
 21
288.6277395490048
 31
0.0
100
AcDbText
 73
     2
  0
TEXT
  5
6CF
330
1F
100
AcDbEntity
  8
作業ﾚｲﾔ1
  6
Continuous
 62
     7
370
    13
100
AcDbText
 10
1385.343326371498
 20
282.4811651406272
 30
0.0
 40
1.915708812260537
  1
Co
  7
ＭＳ ゴシック
 72
     1
 11
1386.588050878956
 21
283.4390195467575
 31
0.0
100
AcDbText
 73
     2
  0
TEXT
  5
6D0
330
1F
100
AcDbEntity
  8
作業ﾚｲﾔ1
  6
Continuous
 62
     7
370
    13
100
AcDbText
 10
1376.119284563705
 20
279.5929439411537
 30
0.0
 40
1.915708812260537
  1
(Co上1㎝厚マット)
  7
ＭＳ ゴシック
 72
     1
 11
1386.699442877103
 21
280.550798347284
 31
0.0
100
AcDbText
 73
     2
  0
TEXT
  5
6D1
330
1F
100
AcDbEntity
  8
作業ﾚｲﾔ1
  6
Continuous
 62
     7
370
    13
100
AcDbText
 10
1072.481826833411
 20
282.5910374846267
 30
0.0
 40
1.915708812260537
  1
Co
  7
ＭＳ ゴシック
 72
     1
 11
1073.726551340869
 21
283.5488918907569
 31
0.0
100
AcDbText
 73
     2
  0
TEXT
  5
6D2
330
1F
100
AcDbEntity
  8
作業ﾚｲﾔ1
  6
Continuous
 62
     7
370
    13
100
AcDbText
 10
1063.257785025618
 20
279.7028162851531
 30
0.0
 40
1.915708812260537
  1
(Co上1㎝厚マット)
  7
ＭＳ ゴシック
 72
     1
 11
1073.837943339016
 21
280.6606706912834
 31
0.0
100
AcDbText
 73
     2
  0
TEXT
  5
6D3
330
1F
100
AcDbEntity
  8
ＧＨ
  6
Continuous
 62
     7
370
    13
100
AcDbText
 10
1309.75
 20
195.3525787677227
 30
0.0
 40
1.915708812260537
  1
（プール内）
  7
ＭＳ ゴシック
 11
1309.75
 21
195.0025
 31
0.0
100
AcDbText
 73
     1
  0
TEXT
  5
6D4
330
1F
100
AcDbEntity
  8
ＧＨ
  6
Continuous
 62
     7
370
    13
100
AcDbText
 10
1309.75
 20
345.3525787677227
 30
0.0
 40
1.915708812260537
  1
（プール内）
  7
ＭＳ ゴシック
 11
1309.75
 21
345.0025
 31
0.0
100
AcDbText
 73
     1
  0
TEXT
  5
6D5
330
1F
100
AcDbEntity
  8
ＰＨ
  6
Continuous
 62
     7
370
    13
100
AcDbText
 10
1309.75
 20
495.3525787677227
 30
0.0
 40
1.915708812260537
  1
（木杭）
  7
ＭＳ ゴシック
 11
1309.75
 21
495.0025
 31
0.0
100
AcDbText
 73
     1
  0
LINE
  5
6D6
330
1F
100
AcDbEntity
  8
作業ﾚｲﾔ1
  6
USER_6
 62
     7
370
    18
100
AcDbLine
 10
1436.82
 20
153.5634028452004
 30
0.0
 11
1436.82
 21
163.5634028452004
 31
0.0
  0
TEXT
  5
6D7
330
1F
100
AcDbEntity
  8
ＧＨ
  6
Continuous
 62
     7
370
    13
100
AcDbText
 10
1434.330550985083
 20
163.9159816129231
 30
0.0
 40
1.915708812260537
  1
境界
  7
ＭＳ ゴシック
 72
     1
 11
1436.82
 21
163.5659028452004
 31
0.0
100
AcDbText
 73
     1
  0
TEXT
  5
6D8
330
1F
100
AcDbEntity
  8
作業ﾚｲﾔ1
  6
Continuous
 62
     7
370
    13
100
AcDbText
 10
938.2158059879087
 20
120.9271395639453
 30
0.0
 40
1.915708812260537
  1
L=0.50
  7
ＭＳ ゴシック
 72
     1
 11
941.9499795102845
 21
121.8849939700756
 31
0.0
100
AcDbText
 73
     2
  0
ARC
  5
6D9
330
1F
100
AcDbEntity
  8
作業ﾚｲﾔ1
  6
Continuous
 62
     7
370
    18
100
AcDbCircle
 10
1560.23
 20
125.6900000000001
 30
0.0
 40
0.5
100
AcDbArc
 50
270.0
 51
90.0
  0
HATCH
  5
6DA
330
1F
100
AcDbEntity
  8
作業ﾚｲﾔ1
  6
Continuous
 62
     7
370
    18
100
AcDbHatch
 10
0.0
 20
0.0
 30
0.0
210
0.0
220
0.0
230
1.0
  2
SOLID
 70
     1
 71
     0
 91
        1
 92
        3
 72
     1
 73
     1
 93
        2
 10
1560.23
 20
125.1900000000001
 42
0.9999999999999999
 10
1560.23
 20
126.1900000000001
 42
0.0
 97
        0
 75
     0
 76
     1
 98
        0
450
        0
451
        0
460
0.0
461
0.0
452
        1
462
0.0
453
        2
463
0.0
 63
     5
421
      255
463
1.0
 63
   254
421
 13750783
470

  0
ARC
  5
6DB
330
1F
100
AcDbEntity
  8
作業ﾚｲﾔ1
  6
Continuous
 62
     7
370
    18
100
AcDbCircle
 10
1562.24
 20
125.6900000000001
 30
0.0
 40
0.5
100
AcDbArc
 50
90.0
 51
270.0
  0
HATCH
  5
6DC
330
1F
100
AcDbEntity
  8
作業ﾚｲﾔ1
  6
Continuous
 62
     7
370
    18
100
AcDbHatch
 10
0.0
 20
0.0
 30
0.0
210
0.0
220
0.0
230
1.0
  2
SOLID
 70
     1
 71
     0
 91
        1
 92
        3
 72
     1
 73
     1
 93
        2
 10
1562.24
 20
126.1900000000001
 42
0.9999999999999999
 10
1562.24
 20
125.1900000000001
 42
0.0
 97
        0
 75
     0
 76
     1
 98
        0
450
        0
451
        0
460
0.0
461
0.0
452
        1
462
0.0
453
        2
463
0.0
 63
     5
421
      255
463
1.0
 63
   254
421
 13750783
470

  0
LINE
  5
6DD
330
1F
100
AcDbEntity
  8
作業ﾚｲﾔ1
  6
USER_6
 62
     7
370
    18
100
AcDbLine
 10
966.44
 20
148.2242845215276
 30
0.0
 11
966.44
 21
158.2242845215276
 31
0.0
  0
TEXT
  5
6DE
330
1F
100
AcDbEntity
  8
ＧＨ
  6
Continuous
 62
     7
370
    13
100
AcDbText
 10
963.9505509850828
 20
158.5768632892504
 30
0.0
 40
1.915708812260537
  1
境界
  7
ＭＳ ゴシック
 72
     1
 11
966.44
 21
158.2267845215276
 31
0.0
100
AcDbText
 73
     1
  0
ARC
  5
6DF
330
1F
100
AcDbEntity
  8
作業ﾚｲﾔ1
  6
Continuous
 62
     7
370
    18
100
AcDbCircle
 10
950.6100000000001
 20
277.14
 30
0.0
 40
0.5
100
AcDbArc
 50
270.0
 51
90.0
  0
HATCH
  5
6E0
330
1F
100
AcDbEntity
  8
作業ﾚｲﾔ1
  6
Continuous
 62
     7
370
    18
100
AcDbHatch
 10
0.0
 20
0.0
 30
0.0
210
0.0
220
0.0
230
1.0
  2
SOLID
 70
     1
 71
     0
 91
        1
 92
        3
 72
     1
 73
     1
 93
        2
 10
950.6100000000001
 20
276.64
 42
0.9999999999999999
 10
950.6100000000001
 20
277.64
 42
0.0
 97
        0
 75
     0
 76
     1
 98
        0
450
        0
451
        0
460
0.0
461
0.0
452
        1
462
0.0
453
        2
463
0.0
 63
     5
421
      255
463
1.0
 63
   254
421
 13750783
470

  0
ARC
  5
6E1
330
1F
100
AcDbEntity
  8
作業ﾚｲﾔ1
  6
Continuous
 62
     7
370
    18
100
AcDbCircle
 10
952.5799999999999
 20
277.14
 30
0.0
 40
0.5
100
AcDbArc
 50
90.0
 51
270.0
  0
HATCH
  5
6E2
330
1F
100
AcDbEntity
  8
作業ﾚｲﾔ1
  6
Continuous
 62
     7
370
    18
100
AcDbHatch
 10
0.0
 20
0.0
 30
0.0
210
0.0
220
0.0
230
1.0
  2
SOLID
 70
     1
 71
     0
 91
        1
 92
        3
 72
     1
 73
     1
 93
        2
 10
952.5799999999999
 20
277.64
 42
0.9999999999999999
 10
952.5799999999999
 20
276.64
 42
0.0
 97
        0
 75
     0
 76
     1
 98
        0
450
        0
451
        0
460
0.0
461
0.0
452
        1
462
0.0
453
        2
463
0.0
 63
     5
421
      255
463
1.0
 63
   254
421
 13750783
470

  0
TEXT
  5
6E3
330
1F
100
AcDbEntity
  8
作業ﾚｲﾔ1
  6
Continuous
 62
     7
370
    13
100
AcDbText
 10
922.2778935903048
 20
271.857798006406
 30
0.0
 40
1.915708812260537
  1
L=0.50
  7
ＭＳ ゴシック
 72
     1
 11
926.0120671126806
 21
272.8156524125363
 31
0.0
100
AcDbText
 73
     2
  0
TEXT
  5
6E4
330
1F
100
AcDbEntity
  8
作業ﾚｲﾔ1
  6
Continuous
 62
     7
370
    13
100
AcDbText
 10
1618.302182797548
 20
420.4257166336909
 30
0.0
 40
1.915708812260537
  1
L=0.40
  7
ＭＳ ゴシック
 72
     1
 11
1622.036356319924
 21
421.3835710398211
 31
0.0
100
AcDbText
 73
     2
  0
ARC
  5
6E5
330
1F
100
AcDbEntity
  8
作業ﾚｲﾔ1
  6
Continuous
 62
     7
370
    18
100
AcDbCircle
 10
1560.4
 20
425.785
 30
0.0
 40
0.5
100
AcDbArc
 50
270.0
 51
90.0
  0
HATCH
  5
6E6
330
1F
100
AcDbEntity
  8
作業ﾚｲﾔ1
  6
Continuous
 62
     7
370
    18
100
AcDbHatch
 10
0.0
 20
0.0
 30
0.0
210
0.0
220
0.0
230
1.0
  2
SOLID
 70
     1
 71
     0
 91
        1
 92
        3
 72
     1
 73
     1
 93
        2
 10
1560.4
 20
425.285
 42
0.9999999999999999
 10
1560.4
 20
426.285
 42
0.0
 97
        0
 75
     0
 76
     1
 98
        0
450
        0
451
        0
460
0.0
461
0.0
452
        1
462
0.0
453
        2
463
0.0
 63
     5
421
      255
463
1.0
 63
   254
421
 13750783
470

  0
ARC
  5
6E7
330
1F
100
AcDbEntity
  8
作業ﾚｲﾔ1
  6
Continuous
 62
     7
370
    18
100
AcDbCircle
 10
1562.47
 20
425.78
 30
0.0
 40
0.5
100
AcDbArc
 50
90.0
 51
270.0
  0
HATCH
  5
6E8
330
1F
100
AcDbEntity
  8
作業ﾚｲﾔ1
  6
Continuous
 62
     7
370
    18
100
AcDbHatch
 10
0.0
 20
0.0
 30
0.0
210
0.0
220
0.0
230
1.0
  2
SOLID
 70
     1
 71
     0
 91
        1
 92
        3
 72
     1
 73
     1
 93
        2
 10
1562.47
 20
426.28
 42
0.9999999999999999
 10
1562.47
 20
425.28
 42
0.0
 97
        0
 75
     0
 76
     1
 98
        0
450
        0
451
        0
460
0.0
461
0.0
452
        1
462
0.0
453
        2
463
0.0
 63
     5
421
      255
463
1.0
 63
   254
421
 13750783
470

  0
ARC
  5
6E9
330
1F
100
AcDbEntity
  8
作業ﾚｲﾔ1
  6
Continuous
 62
     7
370
    18
100
AcDbCircle
 10
936.73
 20
426.95
 30
0.0
 40
0.5
100
AcDbArc
 50
90.0
 51
270.0
  0
HATCH
  5
6EA
330
1F
100
AcDbEntity
  8
作業ﾚｲﾔ1
  6
Continuous
 62
     7
370
    18
100
AcDbHatch
 10
0.0
 20
0.0
 30
0.0
210
0.0
220
0.0
230
1.0
  2
SOLID
 70
     1
 71
     0
 91
        1
 92
        3
 72
     1
 73
     1
 93
        2
 10
936.73
 20
427.45
 42
0.9999999999999999
 10
936.73
 20
426.45
 42
0.0
 97
        0
 75
     0
 76
     1
 98
        0
450
        0
451
        0
460
0.0
461
0.0
452
        1
462
0.0
453
        2
463
0.0
 63
     5
421
      255
463
1.0
 63
   254
421
 13750783
470

  0
ARC
  5
6EB
330
1F
100
AcDbEntity
  8
作業ﾚｲﾔ1
  6
Continuous
 62
     7
370
    18
100
AcDbCircle
 10
934.81
 20
426.95
 30
0.0
 40
0.5
100
AcDbArc
 50
270.0
 51
90.0
  0
HATCH
  5
6EC
330
1F
100
AcDbEntity
  8
作業ﾚｲﾔ1
  6
Continuous
 62
     7
370
    18
100
AcDbHatch
 10
0.0
 20
0.0
 30
0.0
210
0.0
220
0.0
230
1.0
  2
SOLID
 70
     1
 71
     0
 91
        1
 92
        3
 72
     1
 73
     1
 93
        2
 10
934.81
 20
426.45
 42
0.9999999999999999
 10
934.81
 20
427.45
 42
0.0
 97
        0
 75
     0
 76
     1
 98
        0
450
        0
451
        0
460
0.0
461
0.0
452
        1
462
0.0
453
        2
463
0.0
 63
     5
421
      255
463
1.0
 63
   254
421
 13750783
470

  0
LINE
  5
6ED
330
1F
100
AcDbEntity
  8
作業ﾚｲﾔ1
  6
USER_6
 62
     7
370
    18
100
AcDbLine
 10
950.44
 20
302.3249248507219
 30
0.0
 11
950.44
 21
312.3249248507219
 31
0.0
  0
TEXT
  5
6EE
330
1F
100
AcDbEntity
  8
ＧＨ
  6
Continuous
 62
     7
370
    13
100
AcDbText
 10
947.9505509850828
 20
312.6775036184446
 30
0.0
 40
1.915708812260537
  1
境界
  7
ＭＳ ゴシック
 72
     1
 11
950.44
 21
312.3274248507219
 31
0.0
100
AcDbText
 73
     1
  0
LINE
  5
6EF
330
1F
100
AcDbEntity
  8
作業ﾚｲﾔ1
  6
USER_6
 62
     7
370
    18
100
AcDbLine
 10
934.55
 20
455.065479341995
 30
0.0
 11
934.55
 21
465.065479341995
 31
0.0
  0
TEXT
  5
6F0
330
1F
100
AcDbEntity
  8
ＧＨ
  6
Continuous
 62
     7
370
    13
100
AcDbText
 10
932.0605509850827
 20
465.4180581097177
 30
0.0
 40
1.915708812260537
  1
境界
  7
ＭＳ ゴシック
 72
     1
 11
934.55
 21
465.067979341995
 31
0.0
100
AcDbText
 73
     1
  0
LINE
  5
7BC
330
1F
100
AcDbEntity
  8
ＤＬ線
  6
Continuous
 62
     7
370
    18
100
AcDbLine
 10
2603.0
 20
277.0
 30
0.0
 11
2552.0
 21
277.0
 31
0.0
  0
TEXT
  5
7BD
330
1F
100
AcDbEntity
  8
ＤＬ値
  6
Continuous
 62
     7
370
    18
100
AcDbText
 10
1805.0
 20
278.4936102748118
 30
0.0
 40
2.681992337164751
  1
DL=0.000
  7
ＭＳ ゴシック
 11
1805.0
 21
278.0035
 31
0.0
100
AcDbText
 73
     1
  0
LINE
  5
7BE
330
1F
100
AcDbEntity
  8
ＤＬ線
  6
Continuous
 62
     7
370
    18
100
AcDbLine
 10
1802.0
 20
277.0
 30
0.0
 11
1852.0
 21
277.0
 31
0.0
  0
LINE
  5
7BF
330
1F
100
AcDbEntity
  8
測点名
  6
Continuous
 62
     7
370
    18
100
AcDbLine
 10
2212.75
 20
377.0
 30
0.0
 11
2231.25
 21
377.0
 31
0.0
  0
LINE
  5
7C0
330
1F
100
AcDbEntity
  8
測点名
  6
Continuous
 62
     7
370
    18
100
AcDbLine
 10
2212.75
 20
378.0
 30
0.0
 11
2231.25
 21
378.0
 31
0.0
  0
TEXT
  5
7C1
330
1F
100
AcDbEntity
  8
測点名
  6
Continuous
 62
     7
370
    13
100
AcDbText
 10
2215.776377462707
 20
379.7051575354455
 30
0.0
 40
3.831417624521073
  1
BNO.6
  7
ＭＳ ゴシック
 72
     1
 11
2222.0
 21
379.005
 31
0.0
100
AcDbText
 73
     1
  0
LINE
  5
7C2
330
1F
100
AcDbEntity
  8
現況線
  6
Continuous
 62
     7
370
    18
100
AcDbLine
 10
2520.43
 20
300.75
 30
0.0
 11
2546.32
 21
301.14
 31
0.0
  0
LINE
  5
7C3
330
1F
100
AcDbEntity
  8
現況線
  6
Continuous
 62
     7
370
    18
100
AcDbLine
 10
2514.6
 20
300.82
 30
0.0
 11
2520.43
 21
300.75
 31
0.0
  0
LINE
  5
7C4
330
1F
100
AcDbEntity
  8
現況線
  6
Continuous
 62
     7
370
    18
100
AcDbLine
 10
2514.34
 20
301.86
 30
0.0
 11
2514.6
 21
300.82
 31
0.0
  0
LINE
  5
7C5
330
1F
100
AcDbEntity
  8
現況線
  6
Continuous
 62
     7
370
    18
100
AcDbLine
 10
2512.81
 20
302.07
 30
0.0
 11
2514.34
 21
301.86
 31
0.0
  0
LINE
  5
7C6
330
1F
100
AcDbEntity
  8
現況線
  6
Continuous
 62
     7
370
    18
100
AcDbLine
 10
2512.81
 20
306.87
 30
0.0
 11
2512.81
 21
299.75
 31
0.0
  0
ARC
  5
7C7
330
1F
100
AcDbEntity
  8
現況線
  6
Continuous
 62
     7
370
    18
100
AcDbCircle
 10
2512.81
 20
304.51
 30
0.0
 40
0.75
100
AcDbArc
 50
90.0
 51
270.0
  0
HATCH
  5
7C8
330
1F
100
AcDbEntity
  8
現況線
  6
Continuous
 62
     7
370
    18
100
AcDbHatch
 10
0.0
 20
0.0
 30
0.0
210
0.0
220
0.0
230
1.0
  2
SOLID
 70
     1
 71
     0
 91
        1
 92
        3
 72
     1
 73
     1
 93
        2
 10
2512.81
 20
305.26
 42
0.9999999999999999
 10
2512.81
 20
303.76
 42
0.0
 97
        0
 75
     0
 76
     1
 98
        0
450
        0
451
        0
460
0.0
461
0.0
452
        1
462
0.0
453
        2
463
0.0
 63
     5
421
      255
463
1.0
 63
   254
421
 13750783
470

  0
ARC
  5
7C9
330
1F
100
AcDbEntity
  8
現況線
  6
Continuous
 62
     7
370
    18
100
AcDbCircle
 10
2512.81
 20
302.11
 30
0.0
 40
0.75
100
AcDbArc
 50
90.0
 51
270.0
  0
HATCH
  5
7CA
330
1F
100
AcDbEntity
  8
現況線
  6
Continuous
 62
     7
370
    18
100
AcDbHatch
 10
0.0
 20
0.0
 30
0.0
210
0.0
220
0.0
230
1.0
  2
SOLID
 70
     1
 71
     0
 91
        1
 92
        3
 72
     1
 73
     1
 93
        2
 10
2512.81
 20
302.86
 42
0.9999999999999999
 10
2512.81
 20
301.36
 42
0.0
 97
        0
 75
     0
 76
     1
 98
        0
450
        0
451
        0
460
0.0
461
0.0
452
        1
462
0.0
453
        2
463
0.0
 63
     5
421
      255
463
1.0
 63
   254
421
 13750783
470

  0
LINE
  5
7CB
330
1F
100
AcDbEntity
  8
現況線
  6
Continuous
 62
     7
370
    18
100
AcDbLine
 10
2510.37
 20
306.94
 30
0.0
 11
2512.81
 21
306.87
 31
0.0
  0
LINE
  5
7CC
330
1F
100
AcDbEntity
  8
現況線
  6
Continuous
 62
     7
370
    18
100
AcDbLine
 10
2508.83
 20
306.75
 30
0.0
 11
2510.37
 21
306.94
 31
0.0
  0
LINE
  5
7CD
330
1F
100
AcDbEntity
  8
現況線
  6
Continuous
 62
     7
370
    18
100
AcDbLine
 10
2508.83
 20
299.75
 30
0.0
 11
2508.83
 21
306.75
 31
0.0
  0
ARC
  5
7CE
330
1F
100
AcDbEntity
  8
現況線
  6
Continuous
 62
     7
370
    18
100
AcDbCircle
 10
2508.83
 20
302.0
 30
0.0
 40
0.75
100
AcDbArc
 50
270.0
 51
90.0
  0
HATCH
  5
7CF
330
1F
100
AcDbEntity
  8
現況線
  6
Continuous
 62
     7
370
    18
100
AcDbHatch
 10
0.0
 20
0.0
 30
0.0
210
0.0
220
0.0
230
1.0
  2
SOLID
 70
     1
 71
     0
 91
        1
 92
        3
 72
     1
 73
     1
 93
        2
 10
2508.83
 20
301.25
 42
0.9999999999999999
 10
2508.83
 20
302.75
 42
0.0
 97
        0
 75
     0
 76
     1
 98
        0
450
        0
451
        0
460
0.0
461
0.0
452
        1
462
0.0
453
        2
463
0.0
 63
     5
421
      255
463
1.0
 63
   254
421
 13750783
470

  0
ARC
  5
7D0
330
1F
100
AcDbEntity
  8
現況線
  6
Continuous
 62
     7
370
    18
100
AcDbCircle
 10
2508.83
 20
304.5
 30
0.0
 40
0.75
100
AcDbArc
 50
270.0
 51
90.0
  0
HATCH
  5
7D1
330
1F
100
AcDbEntity
  8
現況線
  6
Continuous
 62
     7
370
    18
100
AcDbHatch
 10
0.0
 20
0.0
 30
0.0
210
0.0
220
0.0
230
1.0
  2
SOLID
 70
     1
 71
     0
 91
        1
 92
        3
 72
     1
 73
     1
 93
        2
 10
2508.83
 20
303.75
 42
0.9999999999999999
 10
2508.83
 20
305.25
 42
0.0
 97
        0
 75
     0
 76
     1
 98
        0
450
        0
451
        0
460
0.0
461
0.0
452
        1
462
0.0
453
        2
463
0.0
 63
     5
421
      255
463
1.0
 63
   254
421
 13750783
470

  0
LINE
  5
7D2
330
1F
100
AcDbEntity
  8
現況線
  6
Continuous
 62
     7
370
    18
100
AcDbLine
 10
2489.63
 20
301.07
 30
0.0
 11
2508.83
 21
301.75
 31
0.0
  0
LINE
  5
7D3
330
1F
100
AcDbEntity
  8
現況線
  6
Continuous
 62
     7
370
    18
100
AcDbLine
 10
2487.99
 20
300.87
 30
0.0
 11
2489.63
 21
301.07
 31
0.0
  0
LINE
  5
7D4
330
1F
100
AcDbEntity
  8
現況線
  6
Continuous
 62
     7
370
    18
100
AcDbLine
 10
2487.99
 20
300.09
 30
0.0
 11
2487.99
 21
300.87
 31
0.0
  0
LINE
  5
7D5
330
1F
100
AcDbEntity
  8
現況線
  6
Continuous
 62
     7
370
    18
100
AcDbLine
 10
2483.77
 20
300.09
 30
0.0
 11
2487.99
 21
300.09
 31
0.0
  0
LINE
  5
7D6
330
1F
100
AcDbEntity
  8
現況線
  6
Continuous
 62
     7
370
    18
100
AcDbLine
 10
2479.0
 20
300.11
 30
0.0
 11
2483.77
 21
300.09
 31
0.0
  0
LINE
  5
7D7
330
1F
100
AcDbEntity
  8
現況線
  6
Continuous
 62
     7
370
    18
100
AcDbLine
 10
2406.7
 20
300.66
 30
0.0
 11
2479.0
 21
300.11
 31
0.0
  0
LINE
  5
7D8
330
1F
100
AcDbEntity
  8
現況線
  6
Continuous
 62
     7
370
    18
100
AcDbLine
 10
2326.8
 20
301.72
 30
0.0
 11
2406.7
 21
300.66
 31
0.0
  0
LINE
  5
7D9
330
1F
100
AcDbEntity
  8
現況線
  6
Continuous
 62
     7
370
    18
100
AcDbLine
 10
2311.02
 20
301.25
 30
0.0
 11
2326.8
 21
301.72
 31
0.0
  0
LINE
  5
7DA
330
1F
100
AcDbEntity
  8
現況線
  6
Continuous
 62
     7
370
    18
100
AcDbLine
 10
2285.15
 20
301.62
 30
0.0
 11
2311.02
 21
301.25
 31
0.0
  0
LINE
  5
7DB
330
1F
100
AcDbEntity
  8
現況線
  6
Continuous
 62
     7
370
    18
100
AcDbLine
 10
2269.22
 20
301.11
 30
0.0
 11
2285.15
 21
301.62
 31
0.0
  0
LINE
  5
7DC
330
1F
100
AcDbEntity
  8
現況線
  6
Continuous
 62
     7
370
    18
100
AcDbLine
 10
2222.0
 20
301.05
 30
0.0
 11
2269.22
 21
301.11
 31
0.0
  0
LINE
  5
7DD
330
1F
100
AcDbEntity
  8
現況線
  6
Continuous
 62
     7
370
    18
100
AcDbLine
 10
1816.8
 20
301.88
 30
0.0
 11
1812.02
 21
301.96
 31
0.0
  0
LINE
  5
7DE
330
1F
100
AcDbEntity
  8
現況線
  6
Continuous
 62
     7
370
    18
100
AcDbLine
 10
1817.03
 20
303.42
 30
0.0
 11
1816.8
 21
301.88
 31
0.0
  0
LINE
  5
7DF
330
1F
100
AcDbEntity
  8
現況線
  6
Continuous
 62
     7
370
    18
100
AcDbLine
 10
1818.55
 20
303.42
 30
0.0
 11
1817.03
 21
303.42
 31
0.0
  0
LINE
  5
7E0
330
1F
100
AcDbEntity
  8
現況線
  6
Continuous
 62
     7
370
    18
100
AcDbLine
 10
1818.76
 20
303.56
 30
0.0
 11
1818.55
 21
303.42
 31
0.0
  0
LINE
  5
7E1
330
1F
100
AcDbEntity
  8
現況線
  6
Continuous
 62
     7
370
    18
100
AcDbLine
 10
1820.24
 20
303.64
 30
0.0
 11
1818.76
 21
303.56
 31
0.0
  0
LINE
  5
7E2
330
1F
100
AcDbEntity
  8
現況線
  6
Continuous
 62
     7
370
    18
100
AcDbLine
 10
1838.29
 20
303.79
 30
0.0
 11
1820.24
 21
303.64
 31
0.0
  0
LINE
  5
7E3
330
1F
100
AcDbEntity
  8
現況線
  6
Continuous
 62
     7
370
    18
100
AcDbLine
 10
1839.89
 20
303.79
 30
0.0
 11
1838.29
 21
303.79
 31
0.0
  0
LINE
  5
7E4
330
1F
100
AcDbEntity
  8
現況線
  6
Continuous
 62
     7
370
    18
100
AcDbLine
 10
1839.89
 20
303.84
 30
0.0
 11
1839.89
 21
303.79
 31
0.0
  0
LINE
  5
7E5
330
1F
100
AcDbEntity
  8
現況線
  6
Continuous
 62
     7
370
    18
100
AcDbLine
 10
1840.94
 20
303.84
 30
0.0
 11
1839.89
 21
303.84
 31
0.0
  0
LINE
  5
7E6
330
1F
100
AcDbEntity
  8
現況線
  6
Continuous
 62
     7
370
    18
100
AcDbLine
 10
1841.98
 20
303.85
 30
0.0
 11
1840.94
 21
303.84
 31
0.0
  0
LINE
  5
7E7
330
1F
100
AcDbEntity
  8
現況線
  6
Continuous
 62
     7
370
    18
100
AcDbLine
 10
1875.25
 20
304.0
 30
0.0
 11
1841.98
 21
303.85
 31
0.0
  0
LINE
  5
7E8
330
1F
100
AcDbEntity
  8
現況線
  6
Continuous
 62
     7
370
    18
100
AcDbLine
 10
1914.0
 20
303.79
 30
0.0
 11
1875.25
 21
304.0
 31
0.0
  0
LINE
  5
7E9
330
1F
100
AcDbEntity
  8
現況線
  6
Continuous
 62
     7
370
    18
100
AcDbLine
 10
1945.6
 20
301.78
 30
0.0
 11
1914.0
 21
303.79
 31
0.0
  0
LINE
  5
7EA
330
1F
100
AcDbEntity
  8
現況線
  6
Continuous
 62
     7
370
    18
100
AcDbLine
 10
1988.52
 20
301.78
 30
0.0
 11
1945.6
 21
301.78
 31
0.0
  0
LINE
  5
7EB
330
1F
100
AcDbEntity
  8
現況線
  6
Continuous
 62
     7
370
    18
100
AcDbLine
 10
2002.34
 20
302.87
 30
0.0
 11
1988.52
 21
301.78
 31
0.0
  0
LINE
  5
7EC
330
1F
100
AcDbEntity
  8
現況線
  6
Continuous
 62
     7
370
    18
100
AcDbLine
 10
2097.7
 20
302.03
 30
0.0
 11
2002.34
 21
302.87
 31
0.0
  0
LINE
  5
7ED
330
1F
100
AcDbEntity
  8
現況線
  6
Continuous
 62
     7
370
    18
100
AcDbLine
 10
2161.38
 20
301.98
 30
0.0
 11
2097.7
 21
302.03
 31
0.0
  0
LINE
  5
7EE
330
1F
100
AcDbEntity
  8
現況線
  6
Continuous
 62
     7
370
    18
100
AcDbLine
 10
2222.0
 20
301.05
 30
0.0
 11
2161.38
 21
301.98
 31
0.0
  0
LINE
  5
7EF
330
1F
100
AcDbEntity
  8
中心線
  6
chain
 62
     7
370
    18
100
AcDbLine
 10
2222.0
 20
281.05
 30
0.0
 11
2222.0
 21
321.05
 31
0.0
  0
TEXT
  5
7F0
330
1F
100
AcDbEntity
  8
ＧＨ
  6
Continuous
 62
     7
370
    13
100
AcDbText
 10
2222.0
 20
369.3525787677227
 30
0.0
 40
1.915708812260537
  1
GH=2.41
  7
ＭＳ ゴシック
 11
2222.0
 21
369.0025
 31
0.0
100
AcDbText
 73
     1
  0
TEXT
  5
7F1
330
1F
100
AcDbEntity
  8
ＰＨ
  6
Continuous
 62
     7
370
    13
100
AcDbText
 10
2222.0
 20
372.3525787677227
 30
0.0
 40
1.915708812260537
  1
PH=2.41
  7
ＭＳ ゴシック
 11
2222.0
 21
372.0025
 31
0.0
100
AcDbText
 73
     1
  0
LINE
  5
7F2
330
1F
100
AcDbEntity
  8
作業ﾚｲﾔ7
  6
Continuous
 62
     7
370
    50
100
AcDbLine
 10
2603.0
 20
554.0
 30
0.0
 11
1802.0
 21
554.0
 31
0.0
  0
LINE
  5
7F3
330
1F
100
AcDbEntity
  8
作業ﾚｲﾔ7
  6
Continuous
 62
     7
370
    50
100
AcDbLine
 10
1802.0
 20
554.0
 30
0.0
 11
1802.0
 21
0.0
 31
0.0
  0
LINE
  5
7F4
330
1F
100
AcDbEntity
  8
作業ﾚｲﾔ7
  6
Continuous
 62
     7
370
    50
100
AcDbLine
 10
1802.0
 20
0.0
 30
0.0
 11
2603.0
 21
0.0
 31
0.0
  0
LINE
  5
7F5
330
1F
100
AcDbEntity
  8
作業ﾚｲﾔ7
  6
Continuous
 62
     7
370
    50
100
AcDbLine
 10
2603.0
 20
0.0
 30
0.0
 11
2603.0
 21
554.0
 31
0.0
  0
LINE
  5
7F6
330
1F
100
AcDbEntity
  8
作業ﾚｲﾔ7
  6
Continuous
 62
     7
370
    35
100
AcDbLine
 10
2513.0
 20
60.00000000000489
 30
0.0
 11
2513.0
 21
0.0
 31
0.0
  0
LINE
  5
7F7
330
1F
100
AcDbEntity
  8
作業ﾚｲﾔ7
  6
Continuous
 62
     7
370
    35
100
AcDbLine
 10
2603.0
 20
60.00000000000489
 30
0.0
 11
2513.0
 21
60.00000000000489
 31
0.0
  0
TEXT
  5
7F8
330
1F
100
AcDbEntity
  8
作業ﾚｲﾔ7
  6
Continuous
 62
     7
370
    18
100
AcDbText
 10
2533.524343119788
 20
9.079586208567166
 30
0.0
 40
2.084291187739464
  1
〒238-0004　横須賀市小川町28番地1-202
  7
ＭＳ ゴシック
 72
     1
 11
2558.578158005916
 21
10.1217318024369
 31
0.0
100
AcDbText
 73
     2
  0
TEXT
  5
7F9
330
1F
100
AcDbEntity
  8
作業ﾚｲﾔ7
  6
Continuous
 62
     7
370
    18
100
AcDbText
 10
2528.774158005916
 20
5.196728350837106
 30
0.0
 40
2.513409961685824
  1
有限会社
  7
ＭＳ ゴシック
 11
2528.774158005916
 21
4.737425007584875
 31
0.0
100
AcDbText
 73
     1
  0
TEXT
  5
7FA
330
1F
100
AcDbEntity
  8
作業ﾚｲﾔ7
  6
Continuous
 62
     7
370
    18
100
AcDbText
 10
2555.720586930202
 20
5.021071388648098
 30
0.0
 40
2.513409961685824
  1
オーヤマプランニング
  7
ＭＳ ゴシック
 72
     2
 11
2588.382158005916
 21
4.561768045395866
 31
0.0
100
AcDbText
 73
     1
  0
TEXT
  5
7FB
330
1F
100
AcDbEntity
  8
作業ﾚｲﾔ7
  6
Continuous
 62
     7
370
    18
100
AcDbText
 10
2531.174303249707
 20
1.5576274860506
 30
0.0
 40
1.96168582375479
  1
ＴＥＬ　050-3629-9812　　FAX　050-3629-9816
  7
ＭＳ ゴシック
 72
     1
 11
2558.578158005917
 21
2.538470397927995
 31
0.0
100
AcDbText
 73
     2
  0
LINE
  5
7FC
330
1F
100
AcDbEntity
  8
作業ﾚｲﾔ7
  6
Continuous
 62
     7
370
    35
100
AcDbLine
 10
2603.0
 20
13.33333333333815
 30
0.0
 11
2513.0
 21
13.33333333333815
 31
0.0
  0
LINE
  5
7FD
330
1F
100
AcDbEntity
  8
作業ﾚｲﾔ7
  6
Continuous
 62
     7
370
    35
100
AcDbLine
 10
2603.0
 20
50.00000000000477
 30
0.0
 11
2513.0
 21
50.00000000000477
 31
0.0
  0
LINE
  5
7FE
330
1F
100
AcDbEntity
  8
作業ﾚｲﾔ7
  6
Continuous
 62
     7
370
    35
100
AcDbLine
 10
2603.0
 20
40.00000000000477
 30
0.0
 11
2513.0
 21
40.00000000000477
 31
0.0
  0
LINE
  5
7FF
330
1F
100
AcDbEntity
  8
作業ﾚｲﾔ7
  6
Continuous
 62
     7
370
    35
100
AcDbLine
 10
2603.0
 20
31.66666666667152
 30
0.0
 11
2513.0
 21
31.66666666667152
 31
0.0
  0
LINE
  5
800
330
1F
100
AcDbEntity
  8
作業ﾚｲﾔ7
  6
Continuous
 62
     7
370
    35
100
AcDbLine
 10
2603.0
 20
23.33333333333815
 30
0.0
 11
2513.0
 21
23.33333333333815
 31
0.0
  0
LINE
  5
801
330
1F
100
AcDbEntity
  8
作業ﾚｲﾔ7
  6
Continuous
 62
     7
370
    35
100
AcDbLine
 10
2533.0
 20
60.00000000000489
 30
0.0
 11
2533.0
 21
13.33333333333815
 31
0.0
  0
LINE
  5
802
330
1F
100
AcDbEntity
  8
作業ﾚｲﾔ7
  6
Continuous
 62
     7
370
    35
100
AcDbLine
 10
2553.0
 20
31.66666666667152
 30
0.0
 11
2553.0
 21
13.33333333333815
 31
0.0
  0
LINE
  5
803
330
1F
100
AcDbEntity
  8
作業ﾚｲﾔ7
  6
Continuous
 62
     7
370
    35
100
AcDbLine
 10
2573.0
 20
31.66666666667152
 30
0.0
 11
2573.0
 21
13.33333333333815
 31
0.0
  0
TEXT
  5
804
330
1F
100
AcDbEntity
  8
作業ﾚｲﾔ7
  6
Continuous
 62
     7
370
    18
100
AcDbText
 10
2514.360523403117
 20
53.80717496537839
 30
0.0
 40
2.681992337164751
  1
業　務　名
  7
ＭＳ ゴシック
 72
     1
 11
2523.073594955327
 21
55.14817113396077
 31
0.0
100
AcDbText
 73
     2
  0
TEXT
  5
805
330
1F
100
AcDbEntity
  8
作業ﾚｲﾔ7
  6
Continuous
 62
     7
370
    18
100
AcDbText
 10
2514.360523403117
 20
43.80717496537839
 30
0.0
 40
2.681992337164751
  1
所　　　在
  7
ＭＳ ゴシック
 72
     1
 11
2523.073594955327
 21
45.14817113396077
 31
0.0
100
AcDbText
 73
     2
  0
TEXT
  5
806
330
1F
100
AcDbEntity
  8
作業ﾚｲﾔ7
  6
Continuous
 62
     7
370
    18
100
AcDbText
 10
2514.393460861065
 20
34.88789912003573
 30
0.0
 40
2.681992337164751
  1
図　面　名
  7
ＭＳ ゴシック
 72
     1
 11
2523.106532413275
 21
36.22889528861811
 31
0.0
100
AcDbText
 73
     2
  0
TEXT
  5
807
330
1F
100
AcDbEntity
  8
作業ﾚｲﾔ7
  6
Continuous
 62
     7
370
    18
100
AcDbText
 10
2519.621303792391
 20
26.55456578670247
 30
0.0
 40
2.681992337164751
  1
縮尺
  7
ＭＳ ゴシック
 72
     1
 11
2523.106532413275
 21
27.89556195528485
 31
0.0
100
AcDbText
 73
     2
  0
TEXT
  5
808
330
1F
100
AcDbEntity
  8
作業ﾚｲﾔ7
  6
Continuous
 62
     7
370
    18
100
AcDbText
 10
2517.845752024001
 20
17.14050829871166
 30
0.0
 40
2.681992337164751
  1
作成者
  7
ＭＳ ゴシック
 72
     1
 11
2523.073594955327
 21
18.48150446729403
 31
0.0
100
AcDbText
 73
     2
  0
TEXT
  5
809
330
1F
100
AcDbEntity
  8
作業ﾚｲﾔ7
  6
Continuous
 62
     7
370
    18
100
AcDbText
 10
2556.103137713559
 20
19.62550454337212
 30
0.0
 40
2.681992337164751
  1
資格登録
  7
ＭＳ ゴシック
 72
     1
 11
2563.073594955327
 21
20.9665007119545
 31
0.0
100
AcDbText
 73
     2
  0
TEXT
  5
80A
330
1F
100
AcDbEntity
  8
作業ﾚｲﾔ7
  6
Continuous
 62
     7
370
    18
100
AcDbText
 10
2559.588366334443
 20
14.61901093527307
 30
0.0
 40
2.681992337164751
  1
番号
  7
ＭＳ ゴシック
 72
     1
 11
2563.073594955327
 21
15.96000710385545
 31
0.0
100
AcDbText
 73
     2
  0
TEXT
  5
80B
330
1F
100
AcDbEntity
  8
作業ﾚｲﾔ7
  6
Continuous
 62
     7
370
    18
100
AcDbText
 10
2534.360523403117
 20
17.14050829871177
 30
0.0
 40
2.681992337164751
  1
小野口翔也
  7
ＭＳ ゴシック
 72
     1
 11
2543.073594955328
 21
18.48150446729414
 31
0.0
100
AcDbText
 73
     2
  0
TEXT
  5
80C
330
1F
100
AcDbEntity
  8
作業ﾚｲﾔ7
  6
Continuous
 62
     7
370
    18
100
AcDbText
 10
2581.900849913453
 20
15.33634099617334
 30
0.0
 40
2.681992337164751
  1
H21-240
  7
ＭＳ ゴシック
 72
     1
 11
2588.0
 21
18.01833333333809
 31
0.0
100
AcDbText
 73
     3
  0
TEXT
  5
80D
330
1F
100
AcDbEntity
  8
作業ﾚｲﾔ7
  6
Continuous
 62
     7
370
    18
100
AcDbText
 10
2554.28692844779
 20
26.25000383142241
 30
0.0
 40
2.681992337164751
  1
作成年月日
  7
ＭＳ ゴシック
 72
     1
 11
2563.0
 21
27.59100000000478
 31
0.0
100
AcDbText
 73
     2
  0
TEXT
  5
80E
330
1F
100
AcDbEntity
  8
作業ﾚｲﾔ7
  6
Continuous
 62
     7
370
    18
100
AcDbText
 10
2575.75
 20
18.82694360815001
 30
0.0
 40
2.681992337164751
  1
測量士
  7
ＭＳ ゴシック
 11
2575.75
 21
18.33683333333818
 31
0.0
100
AcDbText
 73
     1
  0
TEXT
  5
80F
330
1F
100
AcDbEntity
  8
作業ﾚｲﾔ7
  6
Continuous
 62
     7
370
    18
100
AcDbText
 10
2550.58041486028
 20
34.88789912003584
 30
0.0
 40
2.681992337164751
  1
横断図（BNO.6）6/6
  7
ＭＳ ゴシック
 72
     1
 11
2566.263943654259
 21
36.22889528861822
 31
0.0
100
AcDbText
 73
     2
  0
TEXT
  5
810
330
1F
100
AcDbEntity
  8
作業ﾚｲﾔ1
  6
Continuous
 62
     7
370
    13
100
AcDbText
 10
1828.353672366088
 20
301.2470891131059
 30
0.0
 40
1.915708812260537
  1
As
  7
ＭＳ ゴシック
 72
     1
 11
1829.598396873547
 21
302.2049435192362
 31
0.0
100
AcDbText
 73
     2
  0
LINE
  5
811
330
1F
100
AcDbEntity
  8
作業ﾚｲﾔ1
  6
Continuous
 62
     7
370
    18
100
AcDbLine
 10
1839.89
 20
303.79
 30
0.0
 11
1839.89
 21
302.79
 31
0.0
  0
LINE
  5
812
330
1F
100
AcDbEntity
  8
作業ﾚｲﾔ1
  6
Continuous
 62
     7
370
    18
100
AcDbLine
 10
1841.98
 20
303.85
 30
0.0
 11
1841.98
 21
302.79
 31
0.0
  0
LINE
  5
813
330
1F
100
AcDbEntity
  8
作業ﾚｲﾔ1
  6
Continuous
 62
     7
370
    18
100
AcDbLine
 10
1838.29
 20
303.79
 30
0.0
 11
1838.29
 21
302.79
 31
0.0
  0
LINE
  5
814
330
1F
100
AcDbEntity
  8
作業ﾚｲﾔ1
  6
Continuous
 62
     7
370
    18
100
AcDbLine
 10
1816.8
 20
301.88
 30
0.0
 11
1816.8
 21
300.88
 31
0.0
  0
LINE
  5
815
330
1F
100
AcDbEntity
  8
作業ﾚｲﾔ1
  6
Continuous
 62
     7
370
    18
100
AcDbLine
 10
1818.55
 20
303.42
 30
0.0
 11
1818.55
 21
300.88
 31
0.0
  0
LINE
  5
816
330
1F
100
AcDbEntity
  8
作業ﾚｲﾔ1
  6
Continuous
 62
     7
370
    18
100
AcDbLine
 10
1812.02
 20
301.96
 30
0.0
 11
1812.02
 21
300.88
 31
0.0
  0
LINE
  5
817
330
1F
100
AcDbEntity
  8
作業ﾚｲﾔ1
  6
Continuous
 62
     7
370
    18
100
AcDbLine
 10
1840.94
 20
303.84
 30
0.0
 11
1840.94
 21
305.09
 31
0.0
  0
LINE
  5
818
330
1F
100
AcDbEntity
  8
作業ﾚｲﾔ1
  6
Continuous
 62
     7
370
    18
100
AcDbLine
 10
1840.94
 20
305.49
 30
0.0
 11
1840.94
 21
305.89
 31
0.0
  0
LINE
  5
819
330
1F
100
AcDbEntity
  8
作業ﾚｲﾔ1
  6
Continuous
 62
     7
370
    18
100
AcDbLine
 10
1840.94
 20
306.29
 30
0.0
 11
1840.94
 21
308.29
 31
0.0
  0
LINE
  5
81A
330
1F
100
AcDbEntity
  8
作業ﾚｲﾔ1
  6
Continuous
 62
     7
370
    18
100
AcDbLine
 10
1840.94
 20
308.6899999999999
 30
0.0
 11
1840.94
 21
309.0899999999999
 31
0.0
  0
LINE
  5
81B
330
1F
100
AcDbEntity
  8
作業ﾚｲﾔ1
  6
Continuous
 62
     7
370
    18
100
AcDbLine
 10
1840.94
 20
309.4899999999999
 30
0.0
 11
1840.94
 21
311.4899999999999
 31
0.0
  0
LINE
  5
81C
330
1F
100
AcDbEntity
  8
作業ﾚｲﾔ1
  6
Continuous
 62
     7
370
    18
100
AcDbLine
 10
1840.94
 20
311.8899999999999
 30
0.0
 11
1840.94
 21
312.2899999999998
 31
0.0
  0
LINE
  5
81D
330
1F
100
AcDbEntity
  8
作業ﾚｲﾔ1
  6
Continuous
 62
     7
370
    18
100
AcDbLine
 10
1840.94
 20
312.6899999999998
 30
0.0
 11
1840.94
 21
313.9399999999998
 31
0.0
  0
LINE
  5
81E
330
1F
100
AcDbEntity
  8
作業ﾚｲﾔ1
  6
Continuous
 62
     7
370
    18
100
AcDbLine
 10
1840.64
 20
313.94
 30
0.0
 11
1841.24
 21
313.94
 31
0.0
  0
LINE
  5
81F
330
1F
100
AcDbEntity
  8
作業ﾚｲﾔ1
  6
Continuous
 62
     7
370
    18
100
AcDbLine
 10
1922.27
 20
303.2639651898734
 30
0.0
 11
1922.27
 21
301.2639651898734
 31
0.0
  0
TEXT
  5
820
330
1F
100
AcDbEntity
  8
作業ﾚｲﾔ1
  6
Continuous
 62
     7
370
    13
100
AcDbText
 10
1879.63171042833
 20
300.4384944955571
 30
0.0
 40
1.915708812260537
  1
g
  7
ＭＳ ゴシック
 72
     1
 11
1880.254072682059
 21
301.3963489016873
 31
0.0
100
AcDbText
 73
     2
  0
TEXT
  5
821
330
1F
100
AcDbEntity
  8
作業ﾚｲﾔ1
  6
Continuous
 62
     7
370
    13
100
AcDbText
 10
2066.968882657118
 20
298.1037071855713
 30
0.0
 40
1.915708812260537
  1
砂
  7
ＭＳ ゴシック
 72
     1
 11
2068.213607164576
 21
299.0615615917015
 31
0.0
100
AcDbText
 73
     2
  0
TEXT
  5
822
330
1F
100
AcDbEntity
  8
作業ﾚｲﾔ1
  6
Continuous
 62
     7
370
    13
100
AcDbText
 10
2323.008237846305
 20
297.614029207994
 30
0.0
 40
1.915708812260537
  1
砂
  7
ＭＳ ゴシック
 72
     1
 11
2324.252962353764
 21
298.5718836141243
 31
0.0
100
AcDbText
 73
     2
  0
LINE
  5
823
330
1F
100
AcDbEntity
  8
作業ﾚｲﾔ1
  6
USER_6
 62
     7
370
    18
100
AcDbLine
 10
2479.0
 20
300.11
 30
0.0
 11
2479.0
 21
296.51
 31
0.0
  0
LINE
  5
824
330
1F
100
AcDbEntity
  8
作業ﾚｲﾔ1
  6
USER_6
 62
     7
370
    18
100
AcDbLine
 10
2483.7699999
 20
300.0900000004193
 30
0.0
 11
2483.7699999
 21
296.51
 31
0.0
  0
LINE
  5
825
330
1F
100
AcDbEntity
  8
作業ﾚｲﾔ1
  6
Continuous
 62
     7
370
    18
100
AcDbLine
 10
2479.51847825
 20
299.61
 30
0.0
 11
2483.25152165
 21
299.61
 31
0.0
  0
LINE
  5
826
330
1F
100
AcDbEntity
  8
作業ﾚｲﾔ1
  6
Continuous
 62
     7
370
    18
100
AcDbLine
 10
2483.510760775
 20
299.61
 30
0.0
 11
2483.25152165
 21
299.61
 31
0.0
  0
LINE
  5
827
330
1F
100
AcDbEntity
  8
作業ﾚｲﾔ1
  6
Continuous
 62
     7
370
    18
100
AcDbLine
 10
2483.510760775
 20
300.0910869569183
 30
0.0
 11
2483.510760775
 21
299.61
 31
0.0
  0
LINE
  5
828
330
1F
100
AcDbEntity
  8
作業ﾚｲﾔ1
  6
USER_6
 62
     7
370
    18
100
AcDbLine
 10
2483.25152165
 20
296.51
 30
0.0
 11
2483.25152165
 21
299.61
 31
0.0
  0
LINE
  5
829
330
1F
100
AcDbEntity
  8
作業ﾚｲﾔ1
  6
Continuous
 62
     7
370
    18
100
AcDbLine
 10
2479.259239125
 20
299.61
 30
0.0
 11
2479.51847825
 21
299.61
 31
0.0
  0
LINE
  5
82A
330
1F
100
AcDbEntity
  8
作業ﾚｲﾔ1
  6
Continuous
 62
     7
370
    18
100
AcDbLine
 10
2479.259239125
 20
300.108913043501
 30
0.0
 11
2479.259239125
 21
299.61
 31
0.0
  0
LINE
  5
82B
330
1F
100
AcDbEntity
  8
作業ﾚｲﾔ1
  6
USER_6
 62
     7
370
    18
100
AcDbLine
 10
2479.51847825
 20
299.61
 30
0.0
 11
2479.51847825
 21
296.51
 31
0.0
  0
TEXT
  5
82C
330
1F
100
AcDbEntity
  8
作業ﾚｲﾔ1
  6
Continuous
 62
     7
370
    13
100
AcDbText
 10
2479.394494124953
 20
293.726517906955
 30
0.0
 40
1.915708812260537
  1
U360
  7
ＭＳ ゴシック
 72
     1
 11
2481.88394313987
 21
294.6843723130852
 31
0.0
100
AcDbText
 73
     2
  0
LINE
  5
82D
330
1F
100
AcDbEntity
  8
作業ﾚｲﾔ1
  6
Continuous
 62
     7
370
    18
100
AcDbLine
 10
2487.99
 20
300.09
 30
0.0
 11
2487.99
 21
299.09
 31
0.0
  0
LINE
  5
82E
330
1F
100
AcDbEntity
  8
作業ﾚｲﾔ1
  6
Continuous
 62
     7
370
    18
100
AcDbLine
 10
2489.63
 20
301.07
 30
0.0
 11
2489.63
 21
299.09
 31
0.0
  0
TEXT
  5
82F
330
1F
100
AcDbEntity
  8
作業ﾚｲﾔ1
  6
Continuous
 62
     7
370
    13
100
AcDbText
 10
2498.715525654301
 20
299.1505040740988
 30
0.0
 40
1.915708812260537
  1
g
  7
ＭＳ ゴシック
 72
     1
 11
2499.337887908031
 21
300.108358480229
 31
0.0
100
AcDbText
 73
     2
  0
LINE
  5
830
330
1F
100
AcDbEntity
  8
作業ﾚｲﾔ1
  6
Continuous
 62
     7
370
    18
100
AcDbLine
 10
2508.83
 20
301.75
 30
0.0
 11
2508.83
 21
299.75
 31
0.0
  0
LINE
  5
831
330
1F
100
AcDbEntity
  8
作業ﾚｲﾔ1
  6
Continuous
 62
     7
370
    18
100
AcDbLine
 10
2512.81
 20
302.07
 30
0.0
 11
2512.81
 21
299.75
 31
0.0
  0
LINE
  5
832
330
1F
100
AcDbEntity
  8
作業ﾚｲﾔ1
  6
Continuous
 62
     7
370
    18
100
AcDbLine
 10
2520.43
 20
300.75
 30
0.0
 11
2520.43
 21
299.75
 31
0.0
  0
LINE
  5
833
330
1F
100
AcDbEntity
  8
作業ﾚｲﾔ1
  6
Continuous
 62
     7
370
    18
100
AcDbLine
 10
2514.6
 20
300.82
 30
0.0
 11
2514.6
 21
299.75
 31
0.0
  0
TEXT
  5
834
330
1F
100
AcDbEntity
  8
作業ﾚｲﾔ1
  6
Continuous
 62
     7
370
    13
100
AcDbText
 10
2532.649945393951
 20
298.0653655034791
 30
0.0
 40
1.915708812260537
  1
As
  7
ＭＳ ゴシック
 72
     1
 11
2533.89466990141
 21
299.0232199096093
 31
0.0
100
AcDbText
 73
     2
  0
LINE
  5
835
330
1F
100
AcDbEntity
  8
測点名
  6
Continuous
 62
     7
370
    18
100
AcDbLine
 10
1810.99
 20
377.0
 30
0.0
 11
1829.49
 21
377.0
 31
0.0
  0
LINE
  5
836
330
1F
100
AcDbEntity
  8
測点名
  6
Continuous
 62
     7
370
    18
100
AcDbLine
 10
1810.99
 20
378.0
 30
0.0
 11
1829.49
 21
378.0
 31
0.0
  0
TEXT
  5
837
330
1F
100
AcDbEntity
  8
測点名
  6
Continuous
 62
     7
370
    13
100
AcDbText
 10
1816.505826477624
 20
379.7051575354455
 30
0.0
 40
3.831417624521073
  1
B6L
  7
ＭＳ ゴシック
 72
     1
 11
1820.24
 21
379.005
 31
0.0
100
AcDbText
 73
     1
  0
LINE
  5
838
330
1F
100
AcDbEntity
  8
中心線
  6
chain
 62
     7
370
    18
100
AcDbLine
 10
1820.24
 20
283.64
 30
0.0
 11
1820.24
 21
323.64
 31
0.0
  0
TEXT
  5
839
330
1F
100
AcDbEntity
  8
ＧＨ
  6
Continuous
 62
     7
370
    13
100
AcDbText
 10
1820.24
 20
369.3525787677227
 30
0.0
 40
1.915708812260537
  1
GH=2.66
  7
ＭＳ ゴシック
 11
1820.24
 21
369.0025
 31
0.0
100
AcDbText
 73
     1
  0
TEXT
  5
83A
330
1F
100
AcDbEntity
  8
ＰＨ
  6
Continuous
 62
     7
370
    13
100
AcDbText
 10
1820.24
 20
372.3525787677227
 30
0.0
 40
1.915708812260537
  1
PH=2.66
  7
ＭＳ ゴシック
 11
1820.24
 21
372.0025
 31
0.0
100
AcDbText
 73
     1
  0
LINE
  5
83B
330
1F
100
AcDbEntity
  8
測点名
  6
Continuous
 62
     7
370
    18
100
AcDbLine
 10
2469.75
 20
377.0
 30
0.0
 11
2488.25
 21
377.0
 31
0.0
  0
LINE
  5
83C
330
1F
100
AcDbEntity
  8
測点名
  6
Continuous
 62
     7
370
    18
100
AcDbLine
 10
2469.75
 20
378.0
 30
0.0
 11
2488.25
 21
378.0
 31
0.0
  0
TEXT
  5
83D
330
1F
100
AcDbEntity
  8
測点名
  6
Continuous
 62
     7
370
    13
100
AcDbText
 10
2475.265826477624
 20
379.7051575354455
 30
0.0
 40
3.831417624521073
  1
B6R
  7
ＭＳ ゴシック
 72
     1
 11
2479.0
 21
379.005
 31
0.0
100
AcDbText
 73
     1
  0
LINE
  5
83E
330
1F
100
AcDbEntity
  8
中心線
  6
chain
 62
     7
370
    18
100
AcDbLine
 10
2479.0
 20
280.11
 30
0.0
 11
2479.0
 21
320.11
 31
0.0
  0
TEXT
  5
83F
330
1F
100
AcDbEntity
  8
ＧＨ
  6
Continuous
 62
     7
370
    13
100
AcDbText
 10
2479.0
 20
369.3525787677227
 30
0.0
 40
1.915708812260537
  1
GH=2.31
  7
ＭＳ ゴシック
 11
2479.0
 21
369.0025
 31
0.0
100
AcDbText
 73
     1
  0
TEXT
  5
840
330
1F
100
AcDbEntity
  8
ＰＨ
  6
Continuous
 62
     7
370
    13
100
AcDbText
 10
2479.0
 20
372.3525787677227
 30
0.0
 40
1.915708812260537
  1
PH=2.31
  7
ＭＳ ゴシック
 11
2479.0
 21
372.0025
 31
0.0
100
AcDbText
 73
     1
  0
TEXT
  5
841
330
1F
100
AcDbEntity
  8
ＧＨ
  6
Continuous
 62
     7
370
    13
100
AcDbText
 10
2222.0
 20
366.3525787677227
 30
0.0
 40
1.915708812260537
  1
FH=
  7
ＭＳ ゴシック
 11
2222.0
 21
366.0025
 31
0.0
100
AcDbText
 73
     1
  0
TEXT
  5
842
330
1F
100
AcDbEntity
  8
ＧＨ
  6
Continuous
 62
     7
370
    13
100
AcDbText
 10
1820.24
 20
366.3525787677227
 30
0.0
 40
1.915708812260537
  1
FH=
  7
ＭＳ ゴシック
 11
1820.24
 21
366.0025
 31
0.0
100
AcDbText
 73
     1
  0
TEXT
  5
843
330
1F
100
AcDbEntity
  8
ＧＨ
  6
Continuous
 62
     7
370
    13
100
AcDbText
 10
2479.0
 20
366.3525787677227
 30
0.0
 40
1.915708812260537
  1
FH=
  7
ＭＳ ゴシック
 11
2479.0
 21
366.0025
 31
0.0
100
AcDbText
 73
     1
  0
TEXT
  5
844
330
1F
100
AcDbEntity
  8
作業ﾚｲﾔ7
  6
Continuous
 62
     7
370
    35
100
AcDbText
 10
2538.643464223895
 20
26.25000383142241
 30
0.0
 40
2.681992337164751
  1
1/100
  7
ＭＳ ゴシック
 72
     1
 11
2543.0
 21
27.59100000000478
 31
0.0
100
AcDbText
 73
     2
  0
TEXT
  5
845
330
1F
100
AcDbEntity
  8
作業ﾚｲﾔ7
  6
Continuous
 62
     7
370
    35
100
AcDbText
 10
2545.455651127767
 20
43.80717496537839
 30
0.0
 40
2.681992337164751
  1
横須賀市久里浜6丁目642番6
  7
ＭＳ ゴシック
 72
     1
 11
2567.238330008293
 21
45.14817113396077
 31
0.0
100
AcDbText
 73
     2
  0
TEXT
  5
846
330
1F
100
AcDbEntity
  8
作業ﾚｲﾔ7
  6
Continuous
 62
     7
370
    35
100
AcDbText
 10
2551.727841767398
 20
54.11008184837338
 30
0.0
 40
2.681992337164751
  1
久里浜公園測量業務
  7
ＭＳ ゴシック
 72
     1
 11
2567.411370561376
 21
55.45107801695576
 31
0.0
100
AcDbText
 73
     2
  0
TEXT
  5
847
330
1F
100
AcDbEntity
  8
作業ﾚｲﾔ7
  6
Continuous
 62
     7
370
    35
100
AcDbText
 10
2576.673006982126
 20
26.25000383142241
 30
0.0
 40
2.681992337164751
  1
令和4年3月3日
  7
ＭＳ ゴシック
 72
     1
 11
2588.0
 21
27.59100000000478
 31
0.0
100
AcDbText
 73
     2
  0
LINE
  5
848
330
1F
100
AcDbEntity
  8
作業ﾚｲﾔ1
  6
Continuous
 62
     7
370
    13
100
AcDbLine
 10
1839.113708940572
 20
302.9467030719396
 30
0.0
 11
1837.69670119874
 21
299.8666901099858
 31
0.0
  0
LINE
  5
849
330
1F
100
AcDbEntity
  8
作業ﾚｲﾔ1
  6
Continuous
 62
     7
370
    13
100
AcDbLine
 10
1839.113708940572
 20
302.9467030719396
 30
0.0
 11
1837.823565554036
 21
301.3387447260318
 31
0.0
  0
TEXT
  5
84A
330
1F
100
AcDbEntity
  8
作業ﾚｲﾔ1
  6
Continuous
 62
     7
370
    13
100
AcDbText
 10
1833.41706141347
 20
297.1048852497175
 30
0.0
 40
1.915708812260537
  1
縁石
  7
ＭＳ ゴシック
 72
     2
 11
1838.395959443305
 21
298.0627396558477
 31
0.0
100
AcDbText
 73
     2
  0
LINE
  5
84B
330
1F
100
AcDbEntity
  8
作業ﾚｲﾔ1
  6
Continuous
 62
     7
370
    13
100
AcDbLine
 10
1841.065728557604
 20
302.8686598984264
 30
0.0
 11
1842.482736299436
 21
299.7886469364725
 31
0.0
  0
LINE
  5
84C
330
1F
100
AcDbEntity
  8
作業ﾚｲﾔ1
  6
Continuous
 62
     7
370
    13
100
AcDbLine
 10
1841.065728557604
 20
302.8686598984264
 30
0.0
 11
1842.355871944141
 21
301.2607015525186
 31
0.0
  0
TEXT
  5
84D
330
1F
100
AcDbEntity
  8
作業ﾚｲﾔ1
  6
Continuous
 62
     7
370
    13
100
AcDbText
 10
1842.302531674392
 20
297.2568075031487
 30
0.0
 40
1.915708812260537
  1
Co
  7
ＭＳ ゴシック
 11
1842.302531674392
 21
298.2146619092789
 31
0.0
100
AcDbText
 73
     2
  0
LINE
  5
84E
330
1F
100
AcDbEntity
  8
作業ﾚｲﾔ1
  6
Continuous
 62
     7
370
    13
100
AcDbLine
 10
2488.694900311441
 20
299.0675224692004
 30
0.0
 11
2490.111908053273
 21
295.9875095072465
 31
0.0
  0
LINE
  5
84F
330
1F
100
AcDbEntity
  8
作業ﾚｲﾔ1
  6
Continuous
 62
     7
370
    13
100
AcDbLine
 10
2488.694900311441
 20
299.0675224692004
 30
0.0
 11
2489.985043697978
 21
297.4595641232926
 31
0.0
  0
TEXT
  5
850
330
1F
100
AcDbEntity
  8
作業ﾚｲﾔ1
  6
Continuous
 62
     7
370
    13
100
AcDbText
 10
2489.922681975025
 20
293.3351447803701
 30
0.0
 40
1.915708812260537
  1
縁石
  7
ＭＳ ゴシック
 11
2489.922681975025
 21
294.2929991865004
 31
0.0
100
AcDbText
 73
     2
  0
LINE
  5
851
330
1F
100
AcDbEntity
  8
作業ﾚｲﾔ1
  6
Continuous
 62
     7
370
    13
100
AcDbLine
 10
2485.87186383249
 20
299.0707301925093
 30
0.0
 11
2487.082010150552
 21
293.404949433429
 31
0.0
  0
LINE
  5
852
330
1F
100
AcDbEntity
  8
作業ﾚｲﾔ1
  6
Continuous
 62
     7
370
    13
100
AcDbLine
 10
2485.87186383249
 20
299.0707301925093
 30
0.0
 11
2486.77858928019
 21
297.2192850913808
 31
0.0
  0
TEXT
  5
853
330
1F
100
AcDbEntity
  8
作業ﾚｲﾔ1
  6
Continuous
 62
     7
370
    13
100
AcDbText
 10
2486.272808238993
 20
290.7785027510882
 30
0.0
 40
1.915708812260537
  1
Co
  7
ＭＳ ゴシック
 11
2486.272808238993
 21
291.7363571572185
 31
0.0
100
AcDbText
 73
     2
  0
TEXT
  5
854
330
1F
100
AcDbEntity
  8
作業ﾚｲﾔ1
  6
Continuous
 62
     7
370
    13
100
AcDbText
 10
1811.520822461886
 20
297.9956553046827
 30
0.0
 40
1.915708812260537
  1
L=0.50
  7
ＭＳ ゴシック
 72
     1
 11
1815.254995984262
 21
298.953509710813
 31
0.0
100
AcDbText
 73
     2
  0
LINE
  5
855
330
1F
100
AcDbEntity
  8
作業ﾚｲﾔ1
  6
USER_6
 62
     7
370
    18
100
AcDbLine
 10
1839.68
 20
319.51346048058
 30
0.0
 11
1839.68
 21
329.51346048058
 31
0.0
  0
TEXT
  5
856
330
1F
100
AcDbEntity
  8
ＧＨ
  6
Continuous
 62
     7
370
    13
100
AcDbText
 10
1837.190550985083
 20
329.8660392483027
 30
0.0
 40
1.915708812260537
  1
境界
  7
ＭＳ ゴシック
 72
     1
 11
1839.68
 21
329.51596048058
 31
0.0
100
AcDbText
 73
     1
  0
TEXT
  5
857
330
1F
100
AcDbEntity
  8
作業ﾚｲﾔ1
  6
Continuous
 62
     7
370
    13
100
AcDbText
 10
2513.848802186375
 20
296.5009199074562
 30
0.0
 40
1.915708812260537
  1
L=0.50
  7
ＭＳ ゴシック
 72
     1
 11
2517.58297570875
 21
297.4587743135864
 31
0.0
100
AcDbText
 73
     2
  0
LINE
  5
858
330
1F
100
AcDbEntity
  8
作業ﾚｲﾔ1
  6
USER_6
 62
     7
370
    18
100
AcDbLine
 10
2511.59
 20
319.51346048058
 30
0.0
 11
2511.59
 21
329.51346048058
 31
0.0
  0
TEXT
  5
859
330
1F
100
AcDbEntity
  8
ＧＨ
  6
Continuous
 62
     7
370
    13
100
AcDbText
 10
2509.100550985083
 20
329.8660392483027
 30
0.0
 40
1.915708812260537
  1
境界
  7
ＭＳ ゴシック
 72
     1
 11
2511.59
 21
329.51596048058
 31
0.0
100
AcDbText
 73
     1
  0
ENDSEC
  0
SECTION
  2
OBJECTS
  0
DICTIONARY
  5
C
330
0
100
AcDbDictionary
281
     1
  3
ACAD_DETAILVIEWSTYLE
350
2EC
  3
ACAD_DGNDEFINITIONS
350
2F1
  3
ACAD_DWFDEFINITIONS
350
2F0
  3
ACAD_GROUP
350
D
  3
ACAD_LAYOUT
350
1A
  3
ACAD_MATERIAL
350
43
  3
ACAD_MLEADERSTYLE
350
6B
  3
ACAD_MLINESTYLE
350
17
  3
ACAD_PDFDEFINITIONS
350
2EF
  3
ACAD_PLOTSETTINGS
350
19
  3
ACAD_PLOTSTYLENAME
350
E
  3
ACAD_SCALELIST
350
47
  3
ACAD_SECTIONVIEWSTYLE
350
2ED
  3
ACAD_TABLESTYLE
350
69
  3
ACAD_VISUALSTYLE
350
2A
  3
ACDB_RECOMPOSE_DATA
350
85D
  3
AcDbVariableDictionary
350
28F
  0
SUN
  5
6D
330
29
100
AcDbSun
 90
        1
290
     0
 63
     7
 40
1.0
291
     1
 91
  2455826
 92
 54000000
292
     0
 70
     2
 71
   256
280
     1
  0
DICTIONARY
  5
2EC
102
{ACAD_REACTORS
330
C
102
}
330
C
100
AcDbDictionary
281
     1
  0
DICTIONARY
  5
2F1
102
{ACAD_REACTORS
330
C
102
}
330
C
100
AcDbDictionary
281
     1
  0
DICTIONARY
  5
2F0
102
{ACAD_REACTORS
330
C
102
}
330
C
100
AcDbDictionary
281
     1
  0
DICTIONARY
  5
D
102
{ACAD_REACTORS
330
C
102
}
330
C
100
AcDbDictionary
281
     1
  0
DICTIONARY
  5
1A
102
{ACAD_REACTORS
330
C
102
}
330
C
100
AcDbDictionary
281
     1
  3
Layout1
350
1E
  3
Layout2
350
26
  3
Model
350
22
  0
DICTIONARY
  5
43
102
{ACAD_REACTORS
330
C
102
}
330
C
100
AcDbDictionary
281
     1
  3
ByBlock
350
45
  3
ByLayer
350
44
  3
Global
350
46
  0
DICTIONARY
  5
6B
102
{ACAD_REACTORS
330
C
102
}
330
C
100
AcDbDictionary
281
     1
  3
Standard
350
6C
  0
DICTIONARY
  5
17
102
{ACAD_REACTORS
330
C
102
}
330
C
100
AcDbDictionary
281
     1
  3
Standard
350
18
  0
DICTIONARY
  5
2EF
102
{ACAD_REACTORS
330
C
102
}
330
C
100
AcDbDictionary
281
     1
  0
DICTIONARY
  5
19
102
{ACAD_REACTORS
330
C
102
}
330
C
100
AcDbDictionary
281
     1
  0
ACDBDICTIONARYWDFLT
  5
E
102
{ACAD_REACTORS
330
C
102
}
330
C
100
AcDbDictionary
281
     1
  3
Normal
350
F
100
AcDbDictionaryWithDefault
340
F
  0
DICTIONARY
  5
47
102
{ACAD_REACTORS
330
C
102
}
330
C
100
AcDbDictionary
281
     1
  3
A0
350
48
  3
A1
350
49
  3
A2
350
4A
  3
A3
350
4B
  3
A4
350
4C
  3
A5
350
4D
  3
A6
350
4E
  3
A7
350
4F
  3
A8
350
50
  3
A9
350
51
  3
B0
350
52
  3
B1
350
53
  3
B2
350
54
  3
B3
350
55
  3
B4
350
56
  3
B5
350
57
  3
B6
350
58
  3
B7
350
59
  3
B8
350
5A
  3
B9
350
5B
  3
C0
350
5C
  3
C1
350
5D
  3
C2
350
5E
  3
C3
350
5F
  3
C4
350
60
  3
C5
350
61
  3
C6
350
62
  3
C7
350
63
  3
C8
350
64
  3
C9
350
65
  3
D0
350
66
  3
D1
350
67
  3
D2
350
68
  0
DICTIONARY
  5
2ED
102
{ACAD_REACTORS
330
C
102
}
330
C
100
AcDbDictionary
281
     1
  0
DICTIONARY
  5
69
102
{ACAD_REACTORS
330
C
102
}
330
C
100
AcDbDictionary
281
     1
  3
Standard
350
6A
  0
DICTIONARY
  5
2A
102
{ACAD_REACTORS
330
C
102
}
330
C
100
AcDbDictionary
281
     1
  3
2dWireframe
350
2F
  3
Basic
350
32
  3
Brighten
350
36
  3
ColorChange
350
3A
  3
Conceptual
350
34
  3
Dim
350
35
  3
EdgeColorOff
350
3D
  3
Facepattern
350
39
  3
Flat
350
2B
  3
FlatWithEdges
350
2C
  3
Gouraud
350
2D
  3
GouraudWithEdges
350
2E
  3
Hidden
350
31
  3
JitterOff
350
3B
  3
Linepattern
350
38
  3
OverhangOff
350
3C
  3
Realistic
350
33
  3
Shaded
350
42
  3
Shaded with edges
350
41
  3
Shades of Gray
350
3E
  3
Sketchy
350
3F
  3
Thicken
350
37
  3
Wireframe
350
30
  3
X-Ray
350
40
  0
XRECORD
  5
85D
102
{ACAD_REACTORS
330
C
102
}
330
C
100
AcDbXrecord
280
     1
 90
        1
330
6A
  0
DICTIONARY
  5
28F
102
{ACAD_REACTORS
330
C
102
}
330
C
100
AcDbDictionary
281
     1
  3
CANNOSCALE
350
2EB
  3
CMLEADERSTYLE
350
291
  3
CTABLESTYLE
350
290
  3
DIMASSOC
350
294
  3
HIDETEXT
350
295
  3
MSLTSCALE
350
2AD
  0
LAYOUT
  5
1E
102
{ACAD_REACTORS
330
1A
102
}
330
1A
100
AcDbPlotSettings
  1

  2
none_device
  4

  6

 40
0.0
 41
0.0
 42
0.0
 43
0.0
 44
0.0
 45
0.0
 46
0.0
 47
0.0
 48
0.0
 49
0.0
140
0.0
141
0.0
142
1.0
143
1.0
 70
   688
 72
     0
 73
     0
 74
     5
  7

 75
    16
 76
     0
 77
     2
 78
   300
147
1.0
148
0.0
149
0.0
100
AcDbLayout
  1
Layout1
 70
     1
 71
     1
 10
0.0
 20
0.0
 11
12.0
 21
9.0
 12
0.0
 22
0.0
 32
0.0
 14
1.000000000000000E+20
 24
1.000000000000000E+20
 34
1.000000000000000E+20
 15
-1.000000000000000E+20
 25
-1.000000000000000E+20
 35
-1.000000000000000E+20
146
0.0
 13
0.0
 23
0.0
 33
0.0
 16
1.0
 26
0.0
 36
0.0
 17
0.0
 27
1.0
 37
0.0
 76
     0
330
1B
  0
LAYOUT
  5
26
102
{ACAD_REACTORS
330
1A
102
}
330
1A
100
AcDbPlotSettings
  1

  2
none_device
  4

  6

 40
0.0
 41
0.0
 42
0.0
 43
0.0
 44
0.0
 45
0.0
 46
0.0
 47
0.0
 48
0.0
 49
0.0
140
0.0
141
0.0
142
1.0
143
1.0
 70
   688
 72
     0
 73
     0
 74
     5
  7

 75
    16
 76
     0
 77
     2
 78
   300
147
1.0
148
0.0
149
0.0
100
AcDbLayout
  1
Layout2
 70
     1
 71
     2
 10
0.0
 20
0.0
 11
0.0
 21
0.0
 12
0.0
 22
0.0
 32
0.0
 14
0.0
 24
0.0
 34
0.0
 15
0.0
 25
0.0
 35
0.0
146
0.0
 13
0.0
 23
0.0
 33
0.0
 16
1.0
 26
0.0
 36
0.0
 17
0.0
 27
1.0
 37
0.0
 76
     0
330
23
  0
LAYOUT
  5
22
102
{ACAD_REACTORS
330
1A
102
}
330
1A
100
AcDbPlotSettings
  1

  2
none_device
  4
Letter_(8.50_x_11.00_Inches)
  6

 40
6.35
 41
6.35
 42
6.35000508
 43
6.35000508
 44
215.9
 45
279.4
 46
0.0
 47
0.0
 48
0.0
 49
0.0
140
0.0
141
0.0
142
1.0
143
1.0
 70
  1712
 72
     0
 73
     0
 74
     0
  7

 75
     0
 76
     0
 77
     2
 78
   300
147
1.0
148
0.0
149
0.0
100
AcDbLayout
  1
Model
 70
     1
 71
     0
 10
0.0
 20
0.0
 11
801.0
 21
554.0
 12
0.0
 22
0.0
 32
0.0
 14
0.0
 24
0.0
 34
0.0
 15
2603.0
 25
554.0
 35
0.0
146
0.0
 13
0.0
 23
0.0
 33
0.0
 16
1.0
 26
0.0
 36
0.0
 17
0.0
 27
1.0
 37
0.0
 76
     0
330
1F
331
29
  0
MATERIAL
  5
45
102
{ACAD_REACTORS
330
43
102
}
330
43
100
AcDbMaterial
  1
ByBlock
 72
     1
 94
      127
  0
MATERIAL
  5
44
102
{ACAD_REACTORS
330
43
102
}
330
43
100
AcDbMaterial
  1
ByLayer
 72
     1
 94
      127
  0
MATERIAL
  5
46
102
{ACAD_REACTORS
330
43
102
}
330
43
100
AcDbMaterial
  1
Global
 72
     1
 94
      127
  0
MLEADERSTYLE
  5
6C
102
{ACAD_REACTORS
330
6B
102
}
330
6B
100
AcDbMLeaderStyle
179
     2
170
     2
171
     1
172
     0
 90
        2
 40
0.0
 41
0.0
173
     1
 91
-1056964608
340
14
 92
       -2
290
     1
 42
0.09
291
     1
 43
0.36
  3
Standard
341
0
 44
0.18
300

342
11
174
     1
178
     6
175
     1
176
     0
 93
-1056964608
 45
0.18
292
     0
297
     0
 46
0.18
343
0
 94
-1056964608
 47
1.0
 49
1.0
140
1.0
293
     1
141
0.0
294
     1
177
     0
142
1.0
295
     0
296
     0
143
0.125
271
     0
272
     9
273
     9
298
     0
1001
ACAD_MLEADERVER
1070
     2
  0
MLINESTYLE
  5
18
102
{ACAD_REACTORS
330
17
102
}
330
17
100
AcDbMlineStyle
  2
Standard
 70
     0
  3

 62
   256
 51
90.0
 52
90.0
 71
     2
 49
0.5
 62
   256
  6
BYLAYER
 49
-0.5
 62
   256
  6
BYLAYER
  0
ACDBPLACEHOLDER
  5
F
102
{ACAD_REACTORS
330
E
102
}
330
E
  0
SCALE
  5
48
102
{ACAD_REACTORS
330
47
102
}
330
47
100
AcDbScale
 70
     0
300
1:1
140
1.0
141
1.0
290
     1
  0
SCALE
  5
49
102
{ACAD_REACTORS
330
47
102
}
330
47
100
AcDbScale
 70
     0
300
1:2
140
1.0
141
2.0
290
     0
  0
SCALE
  5
4A
102
{ACAD_REACTORS
330
47
102
}
330
47
100
AcDbScale
 70
     0
300
1:4
140
1.0
141
4.0
290
     0
  0
SCALE
  5
4B
102
{ACAD_REACTORS
330
47
102
}
330
47
100
AcDbScale
 70
     0
300
1:5
140
1.0
141
5.0
290
     0
  0
SCALE
  5
4C
102
{ACAD_REACTORS
330
47
102
}
330
47
100
AcDbScale
 70
     0
300
1:8
140
1.0
141
8.0
290
     0
  0
SCALE
  5
4D
102
{ACAD_REACTORS
330
47
102
}
330
47
100
AcDbScale
 70
     0
300
1:10
140
1.0
141
10.0
290
     0
  0
SCALE
  5
4E
102
{ACAD_REACTORS
330
47
102
}
330
47
100
AcDbScale
 70
     0
300
1:16
140
1.0
141
16.0
290
     0
  0
SCALE
  5
4F
102
{ACAD_REACTORS
330
47
102
}
330
47
100
AcDbScale
 70
     0
300
1:20
140
1.0
141
20.0
290
     0
  0
SCALE
  5
50
102
{ACAD_REACTORS
330
47
102
}
330
47
100
AcDbScale
 70
     0
300
1:30
140
1.0
141
30.0
290
     0
  0
SCALE
  5
51
102
{ACAD_REACTORS
330
47
102
}
330
47
100
AcDbScale
 70
     0
300
1:40
140
1.0
141
40.0
290
     0
  0
SCALE
  5
52
102
{ACAD_REACTORS
330
47
102
}
330
47
100
AcDbScale
 70
     0
300
1:50
140
1.0
141
50.0
290
     0
  0
SCALE
  5
53
102
{ACAD_REACTORS
330
47
102
}
330
47
100
AcDbScale
 70
     0
300
1:100
140
1.0
141
100.0
290
     0
  0
SCALE
  5
54
102
{ACAD_REACTORS
330
47
102
}
330
47
100
AcDbScale
 70
     0
300
2:1
140
2.0
141
1.0
290
     0
  0
SCALE
  5
55
102
{ACAD_REACTORS
330
47
102
}
330
47
100
AcDbScale
 70
     0
300
4:1
140
4.0
141
1.0
290
     0
  0
SCALE
  5
56
102
{ACAD_REACTORS
330
47
102
}
330
47
100
AcDbScale
 70
     0
300
8:1
140
8.0
141
1.0
290
     0
  0
SCALE
  5
57
102
{ACAD_REACTORS
330
47
102
}
330
47
100
AcDbScale
 70
     0
300
10:1
140
10.0
141
1.0
290
     0
  0
SCALE
  5
58
102
{ACAD_REACTORS
330
47
102
}
330
47
100
AcDbScale
 70
     0
300
100:1
140
100.0
141
1.0
290
     0
  0
SCALE
  5
59
102
{ACAD_REACTORS
330
47
102
}
330
47
100
AcDbScale
 70
     0
300
1/128" = 1'-0"
140
0.0078125
141
12.0
290
     0
  0
SCALE
  5
5A
102
{ACAD_REACTORS
330
47
102
}
330
47
100
AcDbScale
 70
     0
300
1/64" = 1'-0"
140
0.015625
141
12.0
290
     0
  0
SCALE
  5
5B
102
{ACAD_REACTORS
330
47
102
}
330
47
100
AcDbScale
 70
     0
300
1/32" = 1'-0"
140
0.03125
141
12.0
290
     0
  0
SCALE
  5
5C
102
{ACAD_REACTORS
330
47
102
}
330
47
100
AcDbScale
 70
     0
300
1/16" = 1'-0"
140
0.0625
141
12.0
290
     0
  0
SCALE
  5
5D
102
{ACAD_REACTORS
330
47
102
}
330
47
100
AcDbScale
 70
     0
300
3/32" = 1'-0"
140
0.09375
141
12.0
290
     0
  0
SCALE
  5
5E
102
{ACAD_REACTORS
330
47
102
}
330
47
100
AcDbScale
 70
     0
300
1/8" = 1'-0"
140
0.125
141
12.0
290
     0
  0
SCALE
  5
5F
102
{ACAD_REACTORS
330
47
102
}
330
47
100
AcDbScale
 70
     0
300
3/16" = 1'-0"
140
0.1875
141
12.0
290
     0
  0
SCALE
  5
60
102
{ACAD_REACTORS
330
47
102
}
330
47
100
AcDbScale
 70
     0
300
1/4" = 1'-0"
140
0.25
141
12.0
290
     0
  0
SCALE
  5
61
102
{ACAD_REACTORS
330
47
102
}
330
47
100
AcDbScale
 70
     0
300
3/8" = 1'-0"
140
0.375
141
12.0
290
     0
  0
SCALE
  5
62
102
{ACAD_REACTORS
330
47
102
}
330
47
100
AcDbScale
 70
     0
300
1/2" = 1'-0"
140
0.5
141
12.0
290
     0
  0
SCALE
  5
63
102
{ACAD_REACTORS
330
47
102
}
330
47
100
AcDbScale
 70
     0
300
3/4" = 1'-0"
140
0.75
141
12.0
290
     0
  0
SCALE
  5
64
102
{ACAD_REACTORS
330
47
102
}
330
47
100
AcDbScale
 70
     0
300
1" = 1'-0"
140
1.0
141
12.0
290
     0
  0
SCALE
  5
65
102
{ACAD_REACTORS
330
47
102
}
330
47
100
AcDbScale
 70
     0
300
1-1/2" = 1'-0"
140
1.5
141
12.0
290
     0
  0
SCALE
  5
66
102
{ACAD_REACTORS
330
47
102
}
330
47
100
AcDbScale
 70
     0
300
3" = 1'-0"
140
3.0
141
12.0
290
     0
  0
SCALE
  5
67
102
{ACAD_REACTORS
330
47
102
}
330
47
100
AcDbScale
 70
     0
300
6" = 1'-0"
140
6.0
141
12.0
290
     0
  0
SCALE
  5
68
102
{ACAD_REACTORS
330
47
102
}
330
47
100
AcDbScale
 70
     0
300
1'-0" = 1'-0"
140
12.0
141
12.0
290
     0
  0
TABLESTYLE
  5
6A
102
{ACAD_REACTORS
330
69
102
}
102
{ACAD_XDICTIONARY
360
85B
102
}
330
69
100
AcDbTableStyle
  3
Standard
 70
     0
 71
     0
 40
0.06
 41
0.06
280
     0
281
     0
  7
Standard
140
0.18
170
     2
 62
     0
 63
   257
283
     0
 90
        4
 91
        0
  1

274
    -2
284
     1
 64
     0
275
    -2
285
     1
 65
     0
276
    -2
286
     1
 66
     0
277
    -2
287
     1
 67
     0
278
    -2
288
     1
 68
     0
279
    -2
289
     1
 69
     0
  7
Standard
140
0.25
170
     5
 62
     0
 63
   257
283
     0
 90
        4
 91
        0
  1

274
    -2
284
     1
 64
     0
275
    -2
285
     1
 65
     0
276
    -2
286
     1
 66
     0
277
    -2
287
     1
 67
     0
278
    -2
288
     1
 68
     0
279
    -2
289
     1
 69
     0
  7
Standard
140
0.18
170
     5
 62
     0
 63
   257
283
     0
 90
        4
 91
        0
  1

274
    -2
284
     1
 64
     0
275
    -2
285
     1
 65
     0
276
    -2
286
     1
 66
     0
277
    -2
287
     1
 67
     0
278
    -2
288
     1
 68
     0
279
    -2
289
     1
 69
     0
  0
VISUALSTYLE
  5
2F
102
{ACAD_REACTORS
330
2A
102
}
330
2A
100
AcDbVisualStyle
  2
2dWireframe
 70
     4
177
     3
291
     0
 70
    58
 90
        0
176
     1
 90
        2
176
     1
 90
        0
176
     1
 90
        0
176
     1
 40
0.6
176
     1
 40
30.0
176
     1
 62
     7
176
     1
 90
        1
176
     1
 90
        4
176
     1
 62
     7
176
     1
 62
   257
176
     1
 90
        1
176
     1
 90
        1
176
     1
 40
1.0
176
     1
 90
        0
176
     1
 62
   257
176
     1
 40
1.0
176
     1
 90
        1
176
     1
 90
        6
176
     1
 90
        2
176
     1
 62
     7
176
     1
 90
        5
176
     1
 90
        0
176
     1
 90
        0
176
     1
290
     0
176
     1
 90
        1
176
     1
 40
0.0
176
     1
 90
        0
176
     1
290
     1
176
     1
290
     1
176
     1
290
     0
176
     1
290
     0
176
     1
290
     0
176
     1
290
     0
176
     1
290
     0
176
     1
290
     0
176
     1
290
     0
176
     1
 90
       50
176
     1
 40
0.0
176
     1
 40
1.0
176
     1
 90
        0
176
     1
 62
    18
420
        0
176
     1
 90
       50
176
     1
 90
        3
176
     1
 62
     5
420
      255
176
     1
290
     0
176
     1
 90
       50
176
     1
 90
       50
176
     1
 90
       50
176
     1
290
     0
176
     1
 90
       50
176
     1
 62
   256
176
     0
 40
1.0
176
     0
 90
        2
176
     1
  1
strokes_ogs.tif
176
     1
290
     0
176
     1
 40
1.0
176
     1
 40
1.0
176
     1
  0
VISUALSTYLE
  5
32
102
{ACAD_REACTORS
330
2A
102
}
330
2A
100
AcDbVisualStyle
  2
Basic
 70
     7
177
     3
291
     1
 70
    58
 90
        1
176
     1
 90
        0
176
     1
 90
        1
176
     1
 90
        0
176
     1
 40
0.6
176
     1
 40
30.0
176
     1
 62
     7
176
     1
 90
        0
176
     1
 90
        4
176
     1
 62
     7
176
     1
 62
   257
176
     1
 90
        1
176
     1
 90
        1
176
     1
 40
1.0
176
     1
 90
        8
176
     1
 62
     7
176
     1
 40
1.0
176
     1
 90
        1
176
     1
 90
        6
176
     1
 90
        2
176
     1
 62
     7
176
     1
 90
        5
176
     1
 90
        0
176
     1
 90
        0
176
     1
290
     0
176
     1
 90
        1
176
     1
 40
0.0
176
     1
 90
        0
176
     1
290
     0
176
     1
290
     1
176
     1
290
     1
176
     1
290
     0
176
     1
290
     0
176
     1
290
     0
176
     1
290
     0
176
     1
290
     0
176
     1
290
     0
176
     1
 90
       50
176
     1
 40
0.0
176
     1
 40
1.0
176
     1
 90
        0
176
     1
 62
    18
420
        0
176
     1
 90
       50
176
     1
 90
        3
176
     1
 62
     5
420
      255
176
     1
290
     0
176
     1
 90
       50
176
     1
 90
       50
176
     1
 90
       50
176
     1
290
     0
176
     1
 90
       50
176
     1
 62
   256
176
     0
 40
1.0
176
     0
 90
        2
176
     1
  1
strokes_ogs.tif
176
     1
290
     0
176
     1
 40
1.0
176
     1
 40
1.0
176
     1
  0
VISUALSTYLE
  5
36
102
{ACAD_REACTORS
330
2A
102
}
330
2A
100
AcDbVisualStyle
  2
Brighten
 70
    12
177
     3
291
     1
 70
    58
 90
        2
176
     1
 90
        2
176
     1
 90
        0
176
     1
 90
        0
176
     1
 40
0.6
176
     1
 40
30.0
176
     1
 62
     7
176
     1
 90
        1
176
     1
 90
        4
176
     1
 62
     7
176
     1
 62
   257
176
     1
 90
        1
176
     1
 90
        1
176
     1
 40
1.0
176
     1
 90
        8
176
     1
 62
     7
176
     1
 40
1.0
176
     1
 90
        1
176
     1
 90
        6
176
     1
 90
        2
176
     1
 62
     7
176
     1
 90
        5
176
     1
 90
        0
176
     1
 90
        0
176
     1
290
     0
176
     1
 90
        1
176
     1
 40
50.0
176
     1
 90
        0
176
     1
290
     0
176
     1
290
     1
176
     1
290
     1
176
     1
290
     0
176
     1
290
     0
176
     1
290
     0
176
     1
290
     0
176
     1
290
     0
176
     1
290
     0
176
     1
 90
       50
176
     1
 40
0.0
176
     1
 40
1.0
176
     1
 90
        0
176
     1
 62
    18
420
        0
176
     1
 90
       50
176
     1
 90
        3
176
     1
 62
     5
420
      255
176
     1
290
     0
176
     1
 90
       50
176
     1
 90
       50
176
     1
 90
       50
176
     1
290
     0
176
     1
 90
       50
176
     1
 62
   256
176
     0
 40
1.0
176
     0
 90
        2
176
     1
  1
strokes_ogs.tif
176
     1
290
     0
176
     1
 40
1.0
176
     1
 40
1.0
176
     1
  0
VISUALSTYLE
  5
3A
102
{ACAD_REACTORS
330
2A
102
}
330
2A
100
AcDbVisualStyle
  2
ColorChange
 70
    16
177
     3
291
     1
 70
    58
 90
        2
176
     1
 90
        2
176
     1
 90
        3
176
     1
 90
        0
176
     1
 40
0.6
176
     1
 40
30.0
176
     1
 62
     8
176
     1
 90
        1
176
     1
 90
        4
176
     1
 62
     7
176
     1
 62
   257
176
     1
 90
        1
176
     1
 90
        1
176
     1
 40
1.0
176
     1
 90
        8
176
     1
 62
     8
176
     1
 40
1.0
176
     1
 90
        1
176
     1
 90
        6
176
     1
 90
        2
176
     1
 62
     7
176
     1
 90
        5
176
     1
 90
        0
176
     1
 90
        0
176
     1
290
     0
176
     1
 90
        1
176
     1
 40
0.0
176
     1
 90
        0
176
     1
290
     0
176
     1
290
     1
176
     1
290
     1
176
     1
290
     0
176
     1
290
     0
176
     1
290
     0
176
     1
290
     0
176
     1
290
     0
176
     1
290
     0
176
     1
 90
       50
176
     1
 40
0.0
176
     1
 40
1.0
176
     1
 90
        0
176
     1
 62
    18
420
        0
176
     1
 90
       50
176
     1
 90
        3
176
     1
 62
     5
420
      255
176
     1
290
     0
176
     1
 90
       50
176
     1
 90
       50
176
     1
 90
       50
176
     1
290
     0
176
     1
 90
       50
176
     1
 62
   256
176
     0
 40
1.0
176
     0
 90
        2
176
     1
  1
strokes_ogs.tif
176
     1
290
     0
176
     1
 40
1.0
176
     1
 40
1.0
176
     1
  0
VISUALSTYLE
  5
34
102
{ACAD_REACTORS
330
2A
102
}
330
2A
100
AcDbVisualStyle
  2
Conceptual
 70
     9
177
     3
291
     0
 70
    58
 90
        3
176
     1
 90
        2
176
     1
 90
        0
176
     1
 90
        0
176
     1
 40
0.6
176
     1
 40
30.0
176
     1
 62
     7
176
     1
 90
        2
176
     1
 90
        2
176
     1
 62
     7
176
     1
 62
   257
176
     1
 90
        1
176
     1
 90
        1
176
     1
 40
179.0
176
     1
 90
        8
176
     1
 62
     7
176
     1
 40
1.0
176
     1
 90
        1
176
     1
 90
        6
176
     1
 90
        2
176
     1
 62
     7
176
     1
 90
        3
176
     1
 90
        0
176
     1
 90
        0
176
     1
290
     0
176
     1
 90
        1
176
     1
 40
0.0
176
     1
 90
        0
176
     1
290
     0
176
     1
290
     1
176
     1
290
     1
176
     1
290
     0
176
     1
290
     0
176
     1
290
     0
176
     1
290
     0
176
     1
290
     0
176
     1
290
     0
176
     1
 90
       50
176
     1
 40
0.0
176
     1
 40
1.0
176
     1
 90
        0
176
     1
 62
    18
420
        0
176
     1
 90
       50
176
     1
 90
        3
176
     1
 62
     5
420
      255
176
     1
290
     0
176
     1
 90
       50
176
     1
 90
       50
176
     1
 90
       50
176
     1
290
     0
176
     1
 90
       50
176
     1
 62
   256
176
     0
 40
1.0
176
     0
 90
        2
176
     1
  1
strokes_ogs.tif
176
     1
290
     0
176
     1
 40
1.0
176
     1
 40
1.0
176
     1
  0
VISUALSTYLE
  5
35
102
{ACAD_REACTORS
330
2A
102
}
330
2A
100
AcDbVisualStyle
  2
Dim
 70
    11
177
     3
291
     1
 70
    58
 90
        2
176
     1
 90
        2
176
     1
 90
        0
176
     1
 90
        0
176
     1
 40
0.6
176
     1
 40
30.0
176
     1
 62
     7
176
     1
 90
        1
176
     1
 90
        4
176
     1
 62
     7
176
     1
 62
   257
176
     1
 90
        1
176
     1
 90
        1
176
     1
 40
1.0
176
     1
 90
        8
176
     1
 62
     7
176
     1
 40
1.0
176
     1
 90
        1
176
     1
 90
        6
176
     1
 90
        2
176
     1
 62
     7
176
     1
 90
        5
176
     1
 90
        0
176
     1
 90
        0
176
     1
290
     0
176
     1
 90
        1
176
     1
 40
-50.0
176
     1
 90
        0
176
     1
290
     0
176
     1
290
     1
176
     1
290
     1
176
     1
290
     0
176
     1
290
     0
176
     1
290
     0
176
     1
290
     0
176
     1
290
     0
176
     1
290
     0
176
     1
 90
       50
176
     1
 40
0.0
176
     1
 40
1.0
176
     1
 90
        0
176
     1
 62
    18
420
        0
176
     1
 90
       50
176
     1
 90
        3
176
     1
 62
     5
420
      255
176
     1
290
     0
176
     1
 90
       50
176
     1
 90
       50
176
     1
 90
       50
176
     1
290
     0
176
     1
 90
       50
176
     1
 62
   256
176
     0
 40
1.0
176
     0
 90
        2
176
     1
  1
strokes_ogs.tif
176
     1
290
     0
176
     1
 40
1.0
176
     1
 40
1.0
176
     1
  0
VISUALSTYLE
  5
3D
102
{ACAD_REACTORS
330
2A
102
}
330
2A
100
AcDbVisualStyle
  2
EdgeColorOff
 70
    22
177
     3
291
     1
 70
    58
 90
        2
176
     0
 90
        2
176
     0
 90
        0
176
     0
 90
        0
176
     0
 40
0.6
176
     0
 40
30.0
176
     0
 62
     7
176
     0
 90
        1
176
     0
 90
        4
176
     0
 62
     7
176
     0
 62
   257
176
     0
 90
        1
176
     0
 90
        1
176
     0
 40
1.0
176
     0
 90
        8
176
     2
 62
     7
176
     0
 40
1.0
176
     0
 90
        1
176
     0
 90
        6
176
     0
 90
        2
176
     0
 62
     7
176
     0
 90
        5
176
     0
 90
        0
176
     0
 90
        0
176
     0
290
     0
176
     0
 90
        1
176
     0
 40
0.0
176
     0
 90
        0
176
     0
290
     0
176
     0
290
     1
176
     0
290
     1
176
     0
290
     0
176
     0
290
     0
176
     0
290
     0
176
     0
290
     0
176
     0
290
     0
176
     0
290
     0
176
     0
 90
       50
176
     0
 40
0.0
176
     0
 40
1.0
176
     0
 90
        0
176
     0
 62
    18
420
        0
176
     0
 90
       50
176
     0
 90
        3
176
     0
 62
     5
420
      255
176
     0
290
     0
176
     0
 90
       50
176
     0
 90
       50
176
     0
 90
       50
176
     0
290
     0
176
     0
 90
       50
176
     0
 62
   256
176
     0
 40
1.0
176
     0
 90
        2
176
     0
  1
strokes_ogs.tif
176
     0
290
     0
176
     0
 40
1.0
176
     0
 40
1.0
176
     0
  0
VISUALSTYLE
  5
39
102
{ACAD_REACTORS
330
2A
102
}
330
2A
100
AcDbVisualStyle
  2
Facepattern
 70
    15
177
     3
291
     1
 70
    58
 90
        2
176
     1
 90
        2
176
     1
 90
        0
176
     1
 90
        0
176
     1
 40
0.6
176
     1
 40
30.0
176
     1
 62
     7
176
     1
 90
        1
176
     1
 90
        4
176
     1
 62
     7
176
     1
 62
   257
176
     1
 90
        1
176
     1
 90
        1
176
     1
 40
1.0
176
     1
 90
        8
176
     1
 62
     7
176
     1
 40
1.0
176
     1
 90
        1
176
     1
 90
        6
176
     1
 90
        2
176
     1
 62
     7
176
     1
 90
        5
176
     1
 90
        0
176
     1
 90
        0
176
     1
290
     0
176
     1
 90
        1
176
     1
 40
0.0
176
     1
 90
        0
176
     1
290
     0
176
     1
290
     1
176
     1
290
     1
176
     1
290
     0
176
     1
290
     0
176
     1
290
     0
176
     1
290
     0
176
     1
290
     0
176
     1
290
     0
176
     1
 90
       50
176
     1
 40
0.0
176
     1
 40
1.0
176
     1
 90
        0
176
     1
 62
    18
420
        0
176
     1
 90
       50
176
     1
 90
        3
176
     1
 62
     5
420
      255
176
     1
290
     0
176
     1
 90
       50
176
     1
 90
       50
176
     1
 90
       50
176
     1
290
     0
176
     1
 90
       50
176
     1
 62
   256
176
     0
 40
1.0
176
     0
 90
        2
176
     1
  1
strokes_ogs.tif
176
     1
290
     0
176
     1
 40
1.0
176
     1
 40
1.0
176
     1
  0
VISUALSTYLE
  5
2B
102
{ACAD_REACTORS
330
2A
102
}
330
2A
100
AcDbVisualStyle
  2
Flat
 70
     0
177
     3
291
     1
 70
    58
 90
        2
176
     1
 90
        1
176
     1
 90
        1
176
     1
 90
        2
176
     1
 40
0.6
176
     1
 40
30.0
176
     1
 62
     7
176
     1
 90
        0
176
     1
 90
        0
176
     1
 62
     7
176
     1
 62
   257
176
     1
 90
        1
176
     1
 90
        1
176
     1
 40
1.0
176
     1
 90
        8
176
     1
 62
     7
176
     1
 40
1.0
176
     1
 90
        1
176
     1
 90
        6
176
     1
 90
        2
176
     1
 62
     7
176
     1
 90
        5
176
     1
 90
        0
176
     1
 90
        0
176
     1
290
     0
176
     1
 90
       13
176
     1
 40
0.0
176
     1
 90
        0
176
     1
290
     0
176
     1
290
     1
176
     1
290
     1
176
     1
290
     0
176
     1
290
     0
176
     1
290
     0
176
     1
290
     0
176
     1
290
     0
176
     1
290
     0
176
     1
 90
       50
176
     1
 40
0.0
176
     1
 40
1.0
176
     1
 90
        0
176
     1
 62
    18
420
        0
176
     1
 90
       50
176
     1
 90
        3
176
     1
 62
     5
420
      255
176
     1
290
     0
176
     1
 90
       50
176
     1
 90
       50
176
     1
 90
       50
176
     1
290
     0
176
     1
 90
       50
176
     1
 62
   256
176
     0
 40
1.0
176
     0
 90
        2
176
     1
  1
strokes_ogs.tif
176
     1
290
     0
176
     1
 40
1.0
176
     1
 40
1.0
176
     1
  0
VISUALSTYLE
  5
2C
102
{ACAD_REACTORS
330
2A
102
}
330
2A
100
AcDbVisualStyle
  2
FlatWithEdges
 70
     1
177
     3
291
     1
 70
    58
 90
        2
176
     1
 90
        1
176
     1
 90
        1
176
     1
 90
        2
176
     1
 40
0.6
176
     1
 40
30.0
176
     1
 62
     7
176
     1
 90
        1
176
     1
 90
        0
176
     1
 62
     7
176
     1
 62
   257
176
     1
 90
        1
176
     1
 90
        1
176
     1
 40
1.0
176
     1
 90
        0
176
     1
 62
   257
176
     1
 40
1.0
176
     1
 90
        1
176
     1
 90
        6
176
     1
 90
        2
176
     1
 62
     7
176
     1
 90
        5
176
     1
 90
        0
176
     1
 90
        0
176
     1
290
     0
176
     1
 90
       13
176
     1
 40
0.0
176
     1
 90
        0
176
     1
290
     0
176
     1
290
     1
176
     1
290
     1
176
     1
290
     0
176
     1
290
     0
176
     1
290
     0
176
     1
290
     0
176
     1
290
     0
176
     1
290
     0
176
     1
 90
       50
176
     1
 40
0.0
176
     1
 40
1.0
176
     1
 90
        0
176
     1
 62
    18
420
        0
176
     1
 90
       50
176
     1
 90
        3
176
     1
 62
     5
420
      255
176
     1
290
     0
176
     1
 90
       50
176
     1
 90
       50
176
     1
 90
       50
176
     1
290
     0
176
     1
 90
       50
176
     1
 62
   256
176
     0
 40
1.0
176
     0
 90
        2
176
     1
  1
strokes_ogs.tif
176
     1
290
     0
176
     1
 40
1.0
176
     1
 40
1.0
176
     1
  0
VISUALSTYLE
  5
2D
102
{ACAD_REACTORS
330
2A
102
}
330
2A
100
AcDbVisualStyle
  2
Gouraud
 70
     2
177
     3
291
     1
 70
    58
 90
        2
176
     1
 90
        2
176
     1
 90
        1
176
     1
 90
        2
176
     1
 40
0.6
176
     1
 40
30.0
176
     1
 62
     7
176
     1
 90
        0
176
     1
 90
        0
176
     1
 62
     7
176
     1
 62
   257
176
     1
 90
        1
176
     1
 90
        1
176
     1
 40
1.0
176
     1
 90
        0
176
     1
 62
     7
176
     1
 40
1.0
176
     1
 90
        1
176
     1
 90
        6
176
     1
 90
        2
176
     1
 62
     7
176
     1
 90
        5
176
     1
 90
        0
176
     1
 90
        0
176
     1
290
     0
176
     1
 90
       13
176
     1
 40
0.0
176
     1
 90
        0
176
     1
290
     0
176
     1
290
     1
176
     1
290
     1
176
     1
290
     0
176
     1
290
     0
176
     1
290
     0
176
     1
290
     0
176
     1
290
     0
176
     1
290
     0
176
     1
 90
       50
176
     1
 40
0.0
176
     1
 40
1.0
176
     1
 90
        0
176
     1
 62
    18
420
        0
176
     1
 90
       50
176
     1
 90
        3
176
     1
 62
     5
420
      255
176
     1
290
     0
176
     1
 90
       50
176
     1
 90
       50
176
     1
 90
       50
176
     1
290
     0
176
     1
 90
       50
176
     1
 62
   256
176
     0
 40
1.0
176
     0
 90
        2
176
     1
  1
strokes_ogs.tif
176
     1
290
     0
176
     1
 40
1.0
176
     1
 40
1.0
176
     1
  0
VISUALSTYLE
  5
2E
102
{ACAD_REACTORS
330
2A
102
}
330
2A
100
AcDbVisualStyle
  2
GouraudWithEdges
 70
     3
177
     3
291
     1
 70
    58
 90
        2
176
     1
 90
        2
176
     1
 90
        1
176
     1
 90
        2
176
     1
 40
0.6
176
     1
 40
30.0
176
     1
 62
     7
176
     1
 90
        1
176
     1
 90
        0
176
     1
 62
     7
176
     1
 62
   257
176
     1
 90
        1
176
     1
 90
        1
176
     1
 40
1.0
176
     1
 90
        0
176
     1
 62
   257
176
     1
 40
1.0
176
     1
 90
        1
176
     1
 90
        6
176
     1
 90
        2
176
     1
 62
     7
176
     1
 90
        5
176
     1
 90
        0
176
     1
 90
        0
176
     1
290
     0
176
     1
 90
       13
176
     1
 40
0.0
176
     1
 90
        0
176
     1
290
     0
176
     1
290
     1
176
     1
290
     1
176
     1
290
     0
176
     1
290
     0
176
     1
290
     0
176
     1
290
     0
176
     1
290
     0
176
     1
290
     0
176
     1
 90
       50
176
     1
 40
0.0
176
     1
 40
1.0
176
     1
 90
        0
176
     1
 62
    18
420
        0
176
     1
 90
       50
176
     1
 90
        3
176
     1
 62
     5
420
      255
176
     1
290
     0
176
     1
 90
       50
176
     1
 90
       50
176
     1
 90
       50
176
     1
290
     0
176
     1
 90
       50
176
     1
 62
   256
176
     0
 40
1.0
176
     0
 90
        2
176
     1
  1
strokes_ogs.tif
176
     1
290
     0
176
     1
 40
1.0
176
     1
 40
1.0
176
     1
  0
VISUALSTYLE
  5
31
102
{ACAD_REACTORS
330
2A
102
}
330
2A
100
AcDbVisualStyle
  2
Hidden
 70
     6
177
     3
291
     0
 70
    58
 90
        1
176
     1
 90
        2
176
     1
 90
        2
176
     1
 90
        0
176
     1
 40
0.6
176
     1
 40
30.0
176
     1
 62
     7
176
     1
 90
        2
176
     1
 90
        2
176
     1
 62
     7
176
     1
 62
   257
176
     1
 90
        2
176
     1
 90
        1
176
     1
 40
40.0
176
     1
 90
        0
176
     1
 62
   257
176
     1
 40
1.0
176
     1
 90
        1
176
     1
 90
        6
176
     1
 90
        2
176
     1
 62
     7
176
     1
 90
        3
176
     1
 90
        0
176
     1
 90
        0
176
     1
290
     0
176
     1
 90
        1
176
     1
 40
0.0
176
     1
 90
        0
176
     1
290
     0
176
     1
290
     1
176
     1
290
     1
176
     1
290
     0
176
     1
290
     0
176
     1
290
     0
176
     1
290
     0
176
     1
290
     0
176
     1
290
     0
176
     1
 90
       50
176
     1
 40
0.0
176
     1
 40
1.0
176
     1
 90
        0
176
     1
 62
    18
420
        0
176
     1
 90
       50
176
     1
 90
        3
176
     1
 62
     5
420
      255
176
     1
290
     0
176
     1
 90
       50
176
     1
 90
       50
176
     1
 90
       50
176
     1
290
     0
176
     1
 90
       50
176
     1
 62
   256
176
     0
 40
1.0
176
     0
 90
        2
176
     1
  1
strokes_ogs.tif
176
     1
290
     0
176
     1
 40
1.0
176
     1
 40
1.0
176
     1
  0
VISUALSTYLE
  5
3B
102
{ACAD_REACTORS
330
2A
102
}
330
2A
100
AcDbVisualStyle
  2
JitterOff
 70
    20
177
     3
291
     1
 70
    58
 90
        2
176
     0
 90
        2
176
     0
 90
        0
176
     0
 90
        0
176
     0
 40
0.6
176
     0
 40
30.0
176
     0
 62
     7
176
     0
 90
        1
176
     0
 90
        4
176
     0
 62
     7
176
     0
 62
   257
176
     0
 90
        1
176
     0
 90
        1
176
     0
 40
1.0
176
     0
 90
       10
176
     2
 62
     7
176
     0
 40
1.0
176
     0
 90
        1
176
     0
 90
        6
176
     0
 90
        2
176
     0
 62
     7
176
     0
 90
        5
176
     0
 90
        0
176
     0
 90
        0
176
     0
290
     0
176
     0
 90
        1
176
     0
 40
0.0
176
     0
 90
        0
176
     0
290
     0
176
     0
290
     1
176
     0
290
     1
176
     0
290
     0
176
     0
290
     0
176
     0
290
     0
176
     0
290
     0
176
     0
290
     0
176
     0
290
     0
176
     0
 90
       50
176
     0
 40
0.0
176
     0
 40
1.0
176
     0
 90
        0
176
     0
 62
    18
420
        0
176
     0
 90
       50
176
     0
 90
        3
176
     0
 62
     5
420
      255
176
     0
290
     0
176
     0
 90
       50
176
     0
 90
       50
176
     0
 90
       50
176
     0
290
     0
176
     0
 90
       50
176
     0
 62
   256
176
     0
 40
1.0
176
     0
 90
        2
176
     0
  1
strokes_ogs.tif
176
     0
290
     0
176
     0
 40
1.0
176
     0
 40
1.0
176
     0
  0
VISUALSTYLE
  5
38
102
{ACAD_REACTORS
330
2A
102
}
330
2A
100
AcDbVisualStyle
  2
Linepattern
 70
    14
177
     3
291
     1
 70
    58
 90
        2
176
     1
 90
        2
176
     1
 90
        0
176
     1
 90
        0
176
     1
 40
0.6
176
     1
 40
30.0
176
     1
 62
     7
176
     1
 90
        1
176
     1
 90
        4
176
     1
 62
     7
176
     1
 62
   257
176
     1
 90
        7
176
     1
 90
        7
176
     1
 40
1.0
176
     1
 90
        8
176
     1
 62
     7
176
     1
 40
1.0
176
     1
 90
        1
176
     1
 90
        6
176
     1
 90
        2
176
     1
 62
     7
176
     1
 90
        5
176
     1
 90
        0
176
     1
 90
        0
176
     1
290
     0
176
     1
 90
        1
176
     1
 40
0.0
176
     1
 90
        0
176
     1
290
     0
176
     1
290
     1
176
     1
290
     1
176
     1
290
     0
176
     1
290
     0
176
     1
290
     0
176
     1
290
     0
176
     1
290
     0
176
     1
290
     0
176
     1
 90
       50
176
     1
 40
0.0
176
     1
 40
1.0
176
     1
 90
        0
176
     1
 62
    18
420
        0
176
     1
 90
       50
176
     1
 90
        3
176
     1
 62
     5
420
      255
176
     1
290
     0
176
     1
 90
       50
176
     1
 90
       50
176
     1
 90
       50
176
     1
290
     0
176
     1
 90
       50
176
     1
 62
   256
176
     0
 40
1.0
176
     0
 90
        2
176
     1
  1
strokes_ogs.tif
176
     1
290
     0
176
     1
 40
1.0
176
     1
 40
1.0
176
     1
  0
VISUALSTYLE
  5
3C
102
{ACAD_REACTORS
330
2A
102
}
330
2A
100
AcDbVisualStyle
  2
OverhangOff
 70
    21
177
     3
291
     1
 70
    58
 90
        2
176
     0
 90
        2
176
     0
 90
        0
176
     0
 90
        0
176
     0
 40
0.6
176
     0
 40
30.0
176
     0
 62
     7
176
     0
 90
        1
176
     0
 90
        4
176
     0
 62
     7
176
     0
 62
   257
176
     0
 90
        1
176
     0
 90
        1
176
     0
 40
1.0
176
     0
 90
        9
176
     2
 62
     7
176
     0
 40
1.0
176
     0
 90
        1
176
     0
 90
        6
176
     0
 90
        2
176
     0
 62
     7
176
     0
 90
        5
176
     0
 90
        0
176
     0
 90
        0
176
     0
290
     0
176
     0
 90
        1
176
     0
 40
0.0
176
     0
 90
        0
176
     0
290
     0
176
     0
290
     1
176
     0
290
     1
176
     0
290
     0
176
     0
290
     0
176
     0
290
     0
176
     0
290
     0
176
     0
290
     0
176
     0
290
     0
176
     0
 90
       50
176
     0
 40
0.0
176
     0
 40
1.0
176
     0
 90
        0
176
     0
 62
    18
420
        0
176
     0
 90
       50
176
     0
 90
        3
176
     0
 62
     5
420
      255
176
     0
290
     0
176
     0
 90
       50
176
     0
 90
       50
176
     0
 90
       50
176
     0
290
     0
176
     0
 90
       50
176
     0
 62
   256
176
     0
 40
1.0
176
     0
 90
        2
176
     0
  1
strokes_ogs.tif
176
     0
290
     0
176
     0
 40
1.0
176
     0
 40
1.0
176
     0
  0
VISUALSTYLE
  5
33
102
{ACAD_REACTORS
330
2A
102
}
330
2A
100
AcDbVisualStyle
  2
Realistic
 70
     8
177
     3
291
     0
 70
    58
 90
        2
176
     1
 90
        3
176
     1
 90
        0
176
     1
 90
        2
176
     1
 40
0.6
176
     1
 40
30.0
176
     1
 62
     7
176
     1
 90
        0
176
     1
 90
        0
176
     1
 62
     7
176
     1
 62
   257
176
     1
 90
        1
176
     1
 90
        1
176
     1
 40
1.0
176
     1
 90
        8
176
     1
 62
   257
176
     1
 40
1.0
176
     1
 90
        1
176
     1
 90
        6
176
     1
 90
        2
176
     1
 62
     7
176
     1
 90
        3
176
     1
 90
        0
176
     1
 90
        0
176
     1
290
     0
176
     1
 90
       13
176
     1
 40
0.0
176
     1
 90
        0
176
     1
290
     0
176
     1
290
     1
176
     1
290
     1
176
     1
290
     0
176
     1
290
     0
176
     1
290
     0
176
     1
290
     0
176
     1
290
     0
176
     1
290
     0
176
     1
 90
       50
176
     1
 40
0.0
176
     1
 40
1.0
176
     1
 90
        0
176
     1
 62
    18
420
        0
176
     1
 90
       50
176
     1
 90
        3
176
     1
 62
     5
420
      255
176
     1
290
     0
176
     1
 90
       50
176
     1
 90
       50
176
     1
 90
       50
176
     1
290
     0
176
     1
 90
       50
176
     1
 62
   256
176
     0
 40
1.0
176
     0
 90
        2
176
     1
  1
strokes_ogs.tif
176
     1
290
     0
176
     1
 40
1.0
176
     1
 40
1.0
176
     1
  0
VISUALSTYLE
  5
42
102
{ACAD_REACTORS
330
2A
102
}
330
2A
100
AcDbVisualStyle
  2
Shaded
 70
    27
177
     3
291
     0
 70
    58
 90
        2
176
     1
 90
        2
176
     1
 90
        1
176
     1
 90
        2
176
     1
 40
0.6
176
     1
 40
30.0
176
     1
 62
     7
176
     1
 90
        0
176
     1
 90
        4
176
     1
 62
     7
176
     1
 62
   257
176
     1
 90
        1
176
     1
 90
        1
176
     1
 40
1.0
176
     1
 90
        8
176
     1
 62
   257
176
     1
 40
1.0
176
     1
 90
        1
176
     1
 90
        6
176
     1
 90
        2
176
     1
 62
     8
176
     1
 90
        3
176
     1
 90
        0
176
     1
 90
        0
176
     1
290
     0
176
     1
 90
        5
176
     1
 40
0.0
176
     1
 90
        0
176
     1
290
     0
176
     1
290
     1
176
     1
290
     1
176
     1
290
     0
176
     1
290
     0
176
     1
290
     0
176
     1
290
     0
176
     1
290
     0
176
     1
290
     0
176
     1
 90
       50
176
     1
 40
0.0
176
     1
 40
1.0
176
     1
 90
        0
176
     1
 62
    18
420
        0
176
     1
 90
       50
176
     1
 90
        3
176
     1
 62
     5
420
      255
176
     1
290
     0
176
     1
 90
       50
176
     1
 90
       50
176
     1
 90
       50
176
     1
290
     0
176
     1
 90
       50
176
     1
 62
   256
176
     0
 40
1.0
176
     0
 90
        2
176
     1
  1
strokes_ogs.tif
176
     1
290
     0
176
     1
 40
1.0
176
     1
 40
1.0
176
     1
  0
VISUALSTYLE
  5
41
102
{ACAD_REACTORS
330
2A
102
}
330
2A
100
AcDbVisualStyle
  2
Shaded with edges
 70
    26
177
     3
291
     0
 70
    58
 90
        2
176
     1
 90
        2
176
     1
 90
        1
176
     1
 90
        2
176
     1
 40
0.6
176
     1
 40
30.0
176
     1
 62
     7
176
     1
 90
        1
176
     1
 90
       10
176
     1
 62
     7
176
     1
 62
   257
176
     1
 90
        2
176
     1
 90
        1
176
     1
 40
1.0
176
     1
 90
        8
176
     1
 62
   257
176
     1
 40
1.0
176
     1
 90
        1
176
     1
 90
        6
176
     1
 90
        2
176
     1
 62
     7
176
     1
 90
        3
176
     1
 90
        0
176
     1
 90
        0
176
     1
290
     0
176
     1
 90
        5
176
     1
 40
0.0
176
     1
 90
        0
176
     1
290
     0
176
     1
290
     1
176
     1
290
     1
176
     1
290
     0
176
     1
290
     0
176
     1
290
     0
176
     1
290
     0
176
     1
290
     0
176
     1
290
     0
176
     1
 90
       50
176
     1
 40
0.0
176
     1
 40
1.0
176
     1
 90
        0
176
     1
 62
    18
420
        0
176
     1
 90
       50
176
     1
 90
        3
176
     1
 62
     5
420
      255
176
     1
290
     0
176
     1
 90
       50
176
     1
 90
       50
176
     1
 90
       50
176
     1
290
     0
176
     1
 90
       50
176
     1
 62
   256
176
     0
 40
1.0
176
     0
 90
        2
176
     1
  1
strokes_ogs.tif
176
     1
290
     0
176
     1
 40
1.0
176
     1
 40
1.0
176
     1
  0
VISUALSTYLE
  5
3E
102
{ACAD_REACTORS
330
2A
102
}
330
2A
100
AcDbVisualStyle
  2
Shades of Gray
 70
    23
177
     3
291
     0
 70
    58
 90
        2
176
     1
 90
        2
176
     1
 90
        3
176
     1
 90
        0
176
     1
 40
0.6
176
     1
 40
30.0
176
     1
 62
     7
176
     1
 90
        2
176
     1
 90
        2
176
     1
 62
     7
176
     1
 62
     7
176
     1
 90
        1
176
     1
 90
        1
176
     1
 40
40.0
176
     1
 90
        8
176
     1
 62
     7
176
     1
 40
1.0
176
     1
 90
        1
176
     1
 90
        6
176
     1
 90
        2
176
     1
 62
     7
176
     1
 90
        3
176
     1
 90
        0
176
     1
 90
        0
176
     1
290
     0
176
     1
 90
        1
176
     1
 40
0.0
176
     1
 90
        0
176
     1
290
     0
176
     1
290
     1
176
     1
290
     1
176
     1
290
     0
176
     1
290
     0
176
     1
290
     0
176
     1
290
     0
176
     1
290
     0
176
     1
290
     0
176
     1
 90
       50
176
     1
 40
0.0
176
     1
 40
1.0
176
     1
 90
        0
176
     1
 62
    18
420
        0
176
     1
 90
       50
176
     1
 90
        3
176
     1
 62
     5
420
      255
176
     1
290
     0
176
     1
 90
       50
176
     1
 90
       50
176
     1
 90
       50
176
     1
290
     0
176
     1
 90
       50
176
     1
 62
   256
176
     0
 40
1.0
176
     0
 90
        2
176
     1
  1
strokes_ogs.tif
176
     1
290
     0
176
     1
 40
1.0
176
     1
 40
1.0
176
     1
  0
VISUALSTYLE
  5
3F
102
{ACAD_REACTORS
330
2A
102
}
330
2A
100
AcDbVisualStyle
  2
Sketchy
 70
    24
177
     3
291
     0
 70
    58
 90
        1
176
     1
 90
        2
176
     1
 90
        2
176
     1
 90
        0
176
     1
 40
0.6
176
     1
 40
30.0
176
     1
 62
     7
176
     1
 90
        2
176
     1
 90
        2
176
     1
 62
     7
176
     1
 62
     7
176
     1
 90
        1
176
     1
 90
        1
176
     1
 40
40.0
176
     1
 90
       11
176
     1
 62
     7
176
     1
 40
1.0
176
     1
 90
        1
176
     1
 90
        6
176
     1
 90
        2
176
     1
 62
     7
176
     1
 90
        6
176
     1
 90
        0
176
     1
 90
        0
176
     1
290
     0
176
     1
 90
        1
176
     1
 40
0.0
176
     1
 90
        0
176
     1
290
     0
176
     1
290
     1
176
     1
290
     1
176
     1
290
     0
176
     1
290
     0
176
     1
290
     0
176
     1
290
     0
176
     1
290
     0
176
     1
290
     0
176
     1
 90
       50
176
     1
 40
0.0
176
     1
 40
1.0
176
     1
 90
        0
176
     1
 62
    18
420
        0
176
     1
 90
       50
176
     1
 90
        3
176
     1
 62
     5
420
      255
176
     1
290
     0
176
     1
 90
       50
176
     1
 90
       50
176
     1
 90
       50
176
     1
290
     0
176
     1
 90
       50
176
     1
 62
   256
176
     0
 40
1.0
176
     0
 90
        2
176
     1
  1
strokes_ogs.tif
176
     1
290
     0
176
     1
 40
1.0
176
     1
 40
1.0
176
     1
  0
VISUALSTYLE
  5
37
102
{ACAD_REACTORS
330
2A
102
}
330
2A
100
AcDbVisualStyle
  2
Thicken
 70
    13
177
     3
291
     1
 70
    58
 90
        2
176
     1
 90
        2
176
     1
 90
        0
176
     1
 90
        0
176
     1
 40
0.6
176
     1
 40
30.0
176
     1
 62
     7
176
     1
 90
        1
176
     1
 90
        4
176
     1
 62
     7
176
     1
 62
   257
176
     1
 90
        1
176
     1
 90
        1
176
     1
 40
1.0
176
     1
 90
       12
176
     1
 62
     7
176
     1
 40
1.0
176
     1
 90
        1
176
     1
 90
        6
176
     1
 90
        2
176
     1
 62
     7
176
     1
 90
        5
176
     1
 90
        0
176
     1
 90
        0
176
     1
290
     0
176
     1
 90
        1
176
     1
 40
0.0
176
     1
 90
        0
176
     1
290
     0
176
     1
290
     1
176
     1
290
     1
176
     1
290
     0
176
     1
290
     0
176
     1
290
     0
176
     1
290
     0
176
     1
290
     0
176
     1
290
     0
176
     1
 90
       50
176
     1
 40
0.0
176
     1
 40
1.0
176
     1
 90
        0
176
     1
 62
    18
420
        0
176
     1
 90
       50
176
     1
 90
        3
176
     1
 62
     5
420
      255
176
     1
290
     0
176
     1
 90
       50
176
     1
 90
       50
176
     1
 90
       50
176
     1
290
     0
176
     1
 90
       50
176
     1
 62
   256
176
     0
 40
1.0
176
     0
 90
        2
176
     1
  1
strokes_ogs.tif
176
     1
290
     0
176
     1
 40
1.0
176
     1
 40
1.0
176
     1
  0
VISUALSTYLE
  5
30
102
{ACAD_REACTORS
330
2A
102
}
330
2A
100
AcDbVisualStyle
  2
Wireframe
 70
     5
177
     3
291
     0
 70
    58
 90
        0
176
     1
 90
        2
176
     1
 90
        0
176
     1
 90
        0
176
     1
 40
0.6
176
     1
 40
30.0
176
     1
 62
     7
176
     1
 90
        1
176
     1
 90
        4
176
     1
 62
     7
176
     1
 62
   257
176
     1
 90
        1
176
     1
 90
        1
176
     1
 40
1.0
176
     1
 90
        0
176
     1
 62
   257
176
     1
 40
1.0
176
     1
 90
        1
176
     1
 90
        6
176
     1
 90
        2
176
     1
 62
     7
176
     1
 90
        3
176
     1
 90
        0
176
     1
 90
        0
176
     1
290
     0
176
     1
 90
        1
176
     1
 40
0.0
176
     1
 90
        0
176
     1
290
     0
176
     1
290
     1
176
     1
290
     1
176
     1
290
     0
176
     1
290
     0
176
     1
290
     0
176
     1
290
     0
176
     1
290
     0
176
     1
290
     0
176
     1
 90
       50
176
     1
 40
0.0
176
     1
 40
1.0
176
     1
 90
        0
176
     1
 62
    18
420
        0
176
     1
 90
       50
176
     1
 90
        3
176
     1
 62
     5
420
      255
176
     1
290
     0
176
     1
 90
       50
176
     1
 90
       50
176
     1
 90
       50
176
     1
290
     0
176
     1
 90
       50
176
     1
 62
   256
176
     0
 40
1.0
176
     0
 90
        2
176
     1
  1
strokes_ogs.tif
176
     1
290
     0
176
     1
 40
1.0
176
     1
 40
1.0
176
     1
  0
VISUALSTYLE
  5
40
102
{ACAD_REACTORS
330
2A
102
}
330
2A
100
AcDbVisualStyle
  2
X-Ray
 70
    25
177
     3
291
     0
 70
    58
 90
        2
176
     1
 90
        2
176
     1
 90
        1
176
     1
 90
        1
176
     1
 40
0.5
176
     1
 40
30.0
176
     1
 62
     7
176
     1
 90
        1
176
     1
 90
        0
176
     1
 62
     7
176
     1
 62
   257
176
     1
 90
        1
176
     1
 90
        1
176
     1
 40
1.0
176
     1
 90
        8
176
     1
 62
     7
176
     1
 40
1.0
176
     1
 90
        1
176
     1
 90
        6
176
     1
 90
        2
176
     1
 62
     7
176
     1
 90
        3
176
     1
 90
        0
176
     1
 90
        0
176
     1
290
     0
176
     1
 90
       13
176
     1
 40
0.0
176
     1
 90
        0
176
     1
290
     0
176
     1
290
     1
176
     1
290
     1
176
     1
290
     0
176
     1
290
     0
176
     1
290
     0
176
     1
290
     0
176
     1
290
     0
176
     1
290
     0
176
     1
 90
       50
176
     1
 40
0.0
176
     1
 40
1.0
176
     1
 90
        0
176
     1
 62
    18
420
        0
176
     1
 90
       50
176
     1
 90
        3
176
     1
 62
     5
420
      255
176
     1
290
     0
176
     1
 90
       50
176
     1
 90
       50
176
     1
 90
       50
176
     1
290
     0
176
     1
 90
       50
176
     1
 62
   256
176
     0
 40
1.0
176
     0
 90
        2
176
     1
  1
strokes_ogs.tif
176
     1
290
     0
176
     1
 40
1.0
176
     1
 40
1.0
176
     1
  0
DICTIONARYVAR
  5
2EB
102
{ACAD_REACTORS
330
28F
102
}
330
28F
100
DictionaryVariables
280
     0
  1
1:1
  0
DICTIONARYVAR
  5
291
102
{ACAD_REACTORS
330
28F
102
}
330
28F
100
DictionaryVariables
280
     0
  1
Standard
  0
DICTIONARYVAR
  5
290
102
{ACAD_REACTORS
330
28F
102
}
330
28F
100
DictionaryVariables
280
     0
  1
Standard
  0
DICTIONARYVAR
  5
294
102
{ACAD_REACTORS
330
28F
102
}
330
28F
100
DictionaryVariables
280
     0
  1
2
  0
DICTIONARYVAR
  5
295
102
{ACAD_REACTORS
330
28F
102
}
330
28F
100
DictionaryVariables
280
     0
  1
1
  0
DICTIONARYVAR
  5
2AD
102
{ACAD_REACTORS
330
28F
102
}
330
28F
100
DictionaryVariables
280
     0
  1
1
  0
DICTIONARY
  5
85B
330
6A
100
AcDbDictionary
280
     1
281
     1
  3
ACAD_ROUNDTRIP_2008_TABLESTYLE_CELLSTYLEMAP
360
85C
  0
CELLSTYLEMAP
  5
85C
102
{ACAD_REACTORS
330
85B
102
}
330
85B
100
AcDbCellStyleMap
 90
        3
300
CELLSTYLE
  1
TABLEFORMAT_BEGIN
 90
        5
170
     1
 91
        0
 92
    32768
 62
   257
 93
        1
300
CONTENTFORMAT
  1
CONTENTFORMAT_BEGIN
 90
        0
 91
        0
 92
        4
 93
        0
300

 40
0.0
140
1.0
 94
        5
 62
     0
340
11
144
0.25
309
CONTENTFORMAT_END
171
     1
301
MARGIN
  1
CELLMARGIN_BEGIN
 40
0.06
 40
0.06
 40
0.06
 40
0.06
 40
0.06
 40
0.06
309
CELLMARGIN_END
 94
        6
 95
        1
302
GRIDFORMAT
  1
GRIDFORMAT_BEGIN
 90
        0
 91
        1
 62
     0
 92
       -2
340
14
 93
        0
 40
0.045
309
GRIDFORMAT_END
 95
        2
302
GRIDFORMAT
  1
GRIDFORMAT_BEGIN
 90
        0
 91
        1
 62
     0
 92
       -2
340
14
 93
        0
 40
0.045
309
GRIDFORMAT_END
 95
        4
302
GRIDFORMAT
  1
GRIDFORMAT_BEGIN
 90
        0
 91
        1
 62
     0
 92
       -2
340
14
 93
        0
 40
0.045
309
GRIDFORMAT_END
 95
        8
302
GRIDFORMAT
  1
GRIDFORMAT_BEGIN
 90
        0
 91
        1
 62
     0
 92
       -2
340
14
 93
        0
 40
0.045
309
GRIDFORMAT_END
 95
       16
302
GRIDFORMAT
  1
GRIDFORMAT_BEGIN
 90
        0
 91
        1
 62
     0
 92
       -2
340
14
 93
        0
 40
0.045
309
GRIDFORMAT_END
 95
       32
302
GRIDFORMAT
  1
GRIDFORMAT_BEGIN
 90
        0
 91
        1
 62
     0
 92
       -2
340
14
 93
        0
 40
0.045
309
GRIDFORMAT_END
309
TABLEFORMAT_END
  1
CELLSTYLE_BEGIN
 90
        1
 91
        1
300
_TITLE
309
CELLSTYLE_END
300
CELLSTYLE
  1
TABLEFORMAT_BEGIN
 90
        5
170
     1
 91
        0
 92
        0
 62
   257
 93
        1
300
CONTENTFORMAT
  1
CONTENTFORMAT_BEGIN
 90
        0
 91
        0
 92
        4
 93
        0
300

 40
0.0
140
1.0
 94
        5
 62
     0
340
11
144
0.18
309
CONTENTFORMAT_END
171
     1
301
MARGIN
  1
CELLMARGIN_BEGIN
 40
0.06
 40
0.06
 40
0.06
 40
0.06
 40
0.06
 40
0.06
309
CELLMARGIN_END
 94
        6
 95
        1
302
GRIDFORMAT
  1
GRIDFORMAT_BEGIN
 90
        0
 91
        1
 62
     0
 92
       -2
340
14
 93
        0
 40
0.045
309
GRIDFORMAT_END
 95
        2
302
GRIDFORMAT
  1
GRIDFORMAT_BEGIN
 90
        0
 91
        1
 62
     0
 92
       -2
340
14
 93
        0
 40
0.045
309
GRIDFORMAT_END
 95
        4
302
GRIDFORMAT
  1
GRIDFORMAT_BEGIN
 90
        0
 91
        1
 62
     0
 92
       -2
340
14
 93
        0
 40
0.045
309
GRIDFORMAT_END
 95
        8
302
GRIDFORMAT
  1
GRIDFORMAT_BEGIN
 90
        0
 91
        1
 62
     0
 92
       -2
340
14
 93
        0
 40
0.045
309
GRIDFORMAT_END
 95
       16
302
GRIDFORMAT
  1
GRIDFORMAT_BEGIN
 90
        0
 91
        1
 62
     0
 92
       -2
340
14
 93
        0
 40
0.045
309
GRIDFORMAT_END
 95
       32
302
GRIDFORMAT
  1
GRIDFORMAT_BEGIN
 90
        0
 91
        1
 62
     0
 92
       -2
340
14
 93
        0
 40
0.045
309
GRIDFORMAT_END
309
TABLEFORMAT_END
  1
CELLSTYLE_BEGIN
 90
        2
 91
        1
300
_HEADER
309
CELLSTYLE_END
300
CELLSTYLE
  1
TABLEFORMAT_BEGIN
 90
        5
170
     1
 91
        0
 92
        0
 62
   257
 93
        1
300
CONTENTFORMAT
  1
CONTENTFORMAT_BEGIN
 90
        0
 91
        0
 92
        4
 93
        0
300

 40
0.0
140
1.0
 94
        2
 62
     0
340
11
144
0.18
309
CONTENTFORMAT_END
171
     1
301
MARGIN
  1
CELLMARGIN_BEGIN
 40
0.06
 40
0.06
 40
0.06
 40
0.06
 40
0.06
 40
0.06
309
CELLMARGIN_END
 94
        6
 95
        1
302
GRIDFORMAT
  1
GRIDFORMAT_BEGIN
 90
        0
 91
        1
 62
     0
 92
       -2
340
14
 93
        0
 40
0.045
309
GRIDFORMAT_END
 95
        2
302
GRIDFORMAT
  1
GRIDFORMAT_BEGIN
 90
        0
 91
        1
 62
     0
 92
       -2
340
14
 93
        0
 40
0.045
309
GRIDFORMAT_END
 95
        4
302
GRIDFORMAT
  1
GRIDFORMAT_BEGIN
 90
        0
 91
        1
 62
     0
 92
       -2
340
14
 93
        0
 40
0.045
309
GRIDFORMAT_END
 95
        8
302
GRIDFORMAT
  1
GRIDFORMAT_BEGIN
 90
        0
 91
        1
 62
     0
 92
       -2
340
14
 93
        0
 40
0.045
309
GRIDFORMAT_END
 95
       16
302
GRIDFORMAT
  1
GRIDFORMAT_BEGIN
 90
        0
 91
        1
 62
     0
 92
       -2
340
14
 93
        0
 40
0.045
309
GRIDFORMAT_END
 95
       32
302
GRIDFORMAT
  1
GRIDFORMAT_BEGIN
 90
        0
 91
        1
 62
     0
 92
       -2
340
14
 93
        0
 40
0.045
309
GRIDFORMAT_END
309
TABLEFORMAT_END
  1
CELLSTYLE_BEGIN
 90
        3
 91
        2
300
_DATA
309
CELLSTYLE_END
  0
ENDSEC
  0
EOF
