999
This DxfFile is Export By HO_CadPao
  0
SECTION
  2
HEADER
  9
$ACADVER
  1
AC1014
  9
$DWGCODEPAGE
  3
ANSI_932
  9
$EXTMIN
 10
0
 20
0
  9
$EXTMAX
 10
42000
 20
29700
  9
$LIMMIN
 10
0
 20
0
  9
$LIMMAX
 10
42000
 20
29700
  9
$CELTSCALE
 40
1
  9
$MEASUREMENT
 70
1
  9
$LUPREC
 70
7
  9
$HANDSEED
  5
C6
  0
ENDSEC
  0
SECTION
  2
TABLES
  0
TABLE
  2
VPORT
  5
8
100
AcDbSymbolTable
 70
1
  0
VPORT
  5
11
100
AcDbSymbolTableRecord
100
AcDbViewportTableRecord
  2
*ACTIVE
 70
0
 10
0
 20
0
 11
1
 21
1
 12
21000
 22
14850
 13
0
 23
0
 14
1
 24
1
 15
0
 25
0
 16
0
 26
0
 36
1
 17
0
 27
0
 37
0
 40
29700
 41
1.41414141414141
 42
50
 43
0
 44
0
 50
0
 51
0
 71
0
 72
1000
 73
1
 74
1
 75
0
 76
0
 77
0
 78
0
  0
ENDTAB
  0
TABLE
  2
LTYPE
  5
5
100
AcDbSymbolTable
 70
1
  0
LTYPE
  5
12
100
AcDbSymbolTableRecord
100
AcDbLinetypeTableRecord
  2
BYBLOCK
 70
0
  0
LTYPE
  5
13
100
AcDbSymbolTableRecord
100
AcDbLinetypeTableRecord
  2
BYLAYER
 70
0
  0
LTYPE
  5
14
100
AcDbSymbolTableRecord
100
AcDbLinetypeTableRecord
  2
CONTINUOUS
 70
0
  3
Continuous
 72
65
 73
0
 40
0
  0
LTYPE
  5
15
100
AcDbSymbolTableRecord
100
AcDbLinetypeTableRecord
  2
DASHED
 70
0
  3
Dashed
 72
65
 73
2
 40
100
 49
50
 74
0
 49
-50
 74
0
  0
LTYPE
  5
16
100
AcDbSymbolTableRecord
100
AcDbLinetypeTableRecord
  2
DASHEDX2
 70
0
  3
DashedX2
 72
65
 73
2
 40
200
 49
100
 74
0
 49
-100
 74
0
  0
LTYPE
  5
17
100
AcDbSymbolTableRecord
100
AcDbLinetypeTableRecord
  2
DASHED2
 70
0
  3
Dashed2
 72
65
 73
2
 40
170
 49
70
 74
0
 49
-100
 74
0
  0
LTYPE
  5
18
100
AcDbSymbolTableRecord
100
AcDbLinetypeTableRecord
  2
CENTER2
 70
0
  3
Center2
 72
65
 73
4
 40
600
 49
300
 74
0
 49
-100
 74
0
 49
100
 74
0
 49
-100
 74
0
  0
LTYPE
  5
19
100
AcDbSymbolTableRecord
100
AcDbLinetypeTableRecord
  2
CENTER
 70
0
  3
Center
 72
65
 73
4
 40
800
 49
500
 74
0
 49
-100
 74
0
 49
100
 74
0
 49
-100
 74
0
  0
LTYPE
  5
1A
100
AcDbSymbolTableRecord
100
AcDbLinetypeTableRecord
  2
PHANTOM2
 70
0
  3
Phantom2
 72
65
 73
6
 40
650
 49
150
 74
0
 49
-100
 74
0
 49
100
 74
0
 49
-100
 74
0
 49
100
 74
0
 49
-100
 74
0
  0
LTYPE
  5
1B
100
AcDbSymbolTableRecord
100
AcDbLinetypeTableRecord
  2
PHANTOM
 70
0
  3
Phantom
 72
65
 73
6
 40
750
 49
250
 74
0
 49
-100
 74
0
 49
100
 74
0
 49
-100
 74
0
 49
100
 74
0
 49
-100
 74
0
  0
ENDTAB
  0
TABLE
  2
LAYER
  5
2
100
AcDbSymbolTable
 70
3
  0
LAYER
  5
1C
100
AcDbSymbolTableRecord
100
AcDbLayerTableRecord
  2
0
 70
0
 62
7
  6
CONTINUOUS
  0
LAYER
  5
1D
100
AcDbSymbolTableRecord
100
AcDbLayerTableRecord
  2
DefPoints
 70
0
 62
9
  6
CONTINUOUS
  0
LAYER
  5
1E
100
AcDbSymbolTableRecord
100
AcDbLayerTableRecord
  2
G_0-L_0
 70
0
 62
7
  6
CONTINUOUS
  0
ENDTAB
  0
TABLE
  2
STYLE
  5
3
100
AcDbSymbolTable
 70
5
  0
STYLE
  5
1F
100
AcDbSymbolTableRecord
100
AcDbTextStyleTableRecord
  2
STANDARD
 70
0
 40
0
 41
1
 50
0
 71
0
 42
2.5
  3
txt
  4

  0
STYLE
  5
20
100
AcDbSymbolTableRecord
100
AcDbTextStyleTableRecord
  2
ゴシック
 70
0
 40
0
 41
1
 50
0
 71
0
 42
2.5
  3

  4

1001
ACAD
1000
MS Gothic
1071
0
  0
STYLE
  5
21
100
AcDbSymbolTableRecord
100
AcDbTextStyleTableRecord
  2
明朝
 70
0
 40
0
 41
1
 50
0
 71
0
 42
2.5
  3

  4

1001
ACAD
1000
MS Mincho
1071
0
  0
STYLE
  5
22
100
AcDbSymbolTableRecord
100
AcDbTextStyleTableRecord
  2
縦書ゴシック
 70
0
 40
0
 41
1
 50
0
 71
0
 42
2.5
  3

  4

1001
ACAD
1000
@MS Gothic
1071
0
  0
STYLE
  5
23
100
AcDbSymbolTableRecord
100
AcDbTextStyleTableRecord
  2
縦書明朝
 70
0
 40
0
 41
1
 50
0
 71
0
 42
2.5
  3

  4

1001
ACAD
1000
@MS Mincho
1071
0
  0
ENDTAB
  0
TABLE
  2
VIEW
  5
6
100
AcDbSymbolTable
 70
1
  0
VIEW
  5
24
100
AcDbSymbolTableRecord
100
AcDbViewTableRecord
  2
用紙枠
 70
0
 40
29700
 10
21000
 20
14850
 41
42000
 11
0
 21
0
 31
1
 12
0
 22
0
 32
0
 42
50
 43
0
 44
0
 50
0
 71
0
  0
ENDTAB
  0
TABLE
  2
UCS
  5
7
100
AcDbSymbolTable
  0
ENDTAB
  0
TABLE
  2
APPID
  5
9
100
AcDbSymbolTable
 70
1
  0
APPID
  5
25
100
AcDbSymbolTableRecord
100
AcDbRegAppTableRecord
  2
ACAD
 70
0
  0
ENDTAB
  0
TABLE
  2
DIMSTYLE
  5
10
100
AcDbSymbolTable
  0
ENDTAB
  0
TABLE
  2
BLOCK_RECORD
  5
1
100
AcDbSymbolTable
 70
0
  0
BLOCK_RECORD
  5
26
100
AcDbSymbolTableRecord
100
AcDbBlockTableRecord
  2
*MODEL_SPACE
  0
BLOCK_RECORD
  5
27
100
AcDbSymbolTableRecord
100
AcDbBlockTableRecord
  2
*PAPER_SPACE
  0
BLOCK_RECORD
  5
28
100
AcDbSymbolTableRecord
100
AcDbBlockTableRecord
  2
SXFMARKER_星
  0
BLOCK_RECORD
  5
29
100
AcDbSymbolTableRecord
100
AcDbBlockTableRecord
  2
SXFMARKER_円
  0
BLOCK_RECORD
  5
2A
100
AcDbSymbolTableRecord
100
AcDbBlockTableRecord
  2
SXFMARKER_実点
  0
BLOCK_RECORD
  5
2B
100
AcDbSymbolTableRecord
100
AcDbBlockTableRecord
  2
SXFMARKER_プラス
  0
BLOCK_RECORD
  5
2C
100
AcDbSymbolTableRecord
100
AcDbBlockTableRecord
  2
SXFMARKER_四角
  0
BLOCK_RECORD
  5
2D
100
AcDbSymbolTableRecord
100
AcDbBlockTableRecord
  2
SXFMARKER_三角
  0
BLOCK_RECORD
  5
2E
100
AcDbSymbolTableRecord
100
AcDbBlockTableRecord
  2
SXFMARKER_バツ
  0
BLOCK_RECORD
  5
2F
100
AcDbSymbolTableRecord
100
AcDbBlockTableRecord
  2
PAO_PROTMARK_0
  0
BLOCK_RECORD
  5
30
100
AcDbSymbolTableRecord
100
AcDbBlockTableRecord
  2
PAO_PROTMARK_1
  0
BLOCK_RECORD
  5
31
100
AcDbSymbolTableRecord
100
AcDbBlockTableRecord
  2
PAO_PROTMARK_2
  0
BLOCK_RECORD
  5
32
100
AcDbSymbolTableRecord
100
AcDbBlockTableRecord
  2
PAO_PROTMARK_3
  0
BLOCK_RECORD
  5
33
100
AcDbSymbolTableRecord
100
AcDbBlockTableRecord
  2
PAO_PROTMARK_4
  0
BLOCK_RECORD
  5
34
100
AcDbSymbolTableRecord
100
AcDbBlockTableRecord
  2
PAO_PROTMARK_5
  0
BLOCK_RECORD
  5
35
100
AcDbSymbolTableRecord
100
AcDbBlockTableRecord
  2
PAO_PROTMARK_6
  0
BLOCK_RECORD
  5
36
100
AcDbSymbolTableRecord
100
AcDbBlockTableRecord
  2
PAO_PROTMARK_7
  0
BLOCK_RECORD
  5
37
100
AcDbSymbolTableRecord
100
AcDbBlockTableRecord
  2
PAO_PROTMARK_8
  0
BLOCK_RECORD
  5
38
100
AcDbSymbolTableRecord
100
AcDbBlockTableRecord
  2
PAO_PROTMARK_9
  0
BLOCK_RECORD
  5
39
100
AcDbSymbolTableRecord
100
AcDbBlockTableRecord
  2
PAO_PROTMARK_10
  0
BLOCK_RECORD
  5
3A
100
AcDbSymbolTableRecord
100
AcDbBlockTableRecord
  2
PAO_PROTMARK_11
  0
BLOCK_RECORD
  5
3B
100
AcDbSymbolTableRecord
100
AcDbBlockTableRecord
  2
PAO_PROTMARK_12
  0
BLOCK_RECORD
  5
3C
100
AcDbSymbolTableRecord
100
AcDbBlockTableRecord
  2
PAO_PROTMARK_13
  0
BLOCK_RECORD
  5
3D
100
AcDbSymbolTableRecord
100
AcDbBlockTableRecord
  2
PAO_PROTMARK_14
  0
ENDTAB
  0
ENDSEC
  0
SECTION
  2
BLOCKS
  0
BLOCK
  5
3E
100
AcDbEntity
  8
0
100
AcDbBlockBegin
  2
*MODEL_SPACE
 70
0
 10
0
 20
0
  0
ENDBLK
  5
3F
100
AcDbEntity
  8
0
100
AcDbBlockEnd
  0
BLOCK
  5
40
100
AcDbEntity
  8
0
100
AcDbBlockBegin
  2
*PAPER_SPACE
 70
0
 10
0
 20
0
  0
ENDBLK
  5
41
100
AcDbEntity
  8
0
100
AcDbBlockEnd
  0
BLOCK
  5
42
100
AcDbEntity
  8
0
100
AcDbBlockBegin
  2
SXFMARKER_星
 70
0
 10
0
 20
0
  0
LINE
  5
43
100
AcDbEntity
  8
0
370
13
100
AcDbLine
  6
CONTINUOUS
 62
0
 10
0
 20
-50
 11
0
 21
50
  0
LINE
  5
44
100
AcDbEntity
  8
0
370
13
100
AcDbLine
  6
CONTINUOUS
 62
0
 10
-43.3012702
 20
-25
 11
43.3012702
 21
25
  0
LINE
  5
45
100
AcDbEntity
  8
0
370
13
100
AcDbLine
  6
CONTINUOUS
 62
0
 10
-43.3012702
 20
25
 11
43.3012702
 21
-25
  0
ENDBLK
  5
46
100
AcDbEntity
  8
0
100
AcDbBlockEnd
  0
BLOCK
  5
47
100
AcDbEntity
  8
0
100
AcDbBlockBegin
  2
SXFMARKER_円
 70
0
 10
0
 20
0
  0
POINT
  5
48
100
AcDbEntity
  8
0
100
AcDbPoint
 62
0
 10
0
 20
0
  0
CIRCLE
  5
49
100
AcDbEntity
  8
0
370
13
100
AcDbCircle
  6
CONTINUOUS
 62
0
 10
0
 20
0
 40
50
  0
ENDBLK
  5
4A
100
AcDbEntity
  8
0
100
AcDbBlockEnd
  0
BLOCK
  5
4B
100
AcDbEntity
  8
0
100
AcDbBlockBegin
  2
SXFMARKER_実点
 70
0
 10
0
 20
0
  0
POINT
  5
4C
100
AcDbEntity
  8
0
100
AcDbPoint
 62
0
 10
0
 20
0
  0
HATCH
  5
4D
100
AcDbEntity
  8
0
  6
CONTINUOUS
 62
0
100
AcDbHatch
 10
0
 20
0
210
0
220
0
230
1
  2
SOLID
 70
1
 71
0
 91
1
 92
1
 93
1
 72
2
 10
0
 20
0
 40
50
 50
0
 51
360
 73
1
 97
0
 75
0
 76
1
 98
1
 10
0
 20
0
  0
ENDBLK
  5
4E
100
AcDbEntity
  8
0
100
AcDbBlockEnd
  0
BLOCK
  5
4F
100
AcDbEntity
  8
0
100
AcDbBlockBegin
  2
SXFMARKER_プラス
 70
0
 10
0
 20
0
  0
LINE
  5
50
100
AcDbEntity
  8
0
370
13
100
AcDbLine
  6
CONTINUOUS
 62
0
 10
-50
 20
0
 11
50
 21
0
  0
LINE
  5
51
100
AcDbEntity
  8
0
370
13
100
AcDbLine
  6
CONTINUOUS
 62
0
 10
0
 20
50
 11
0
 21
-50
  0
ENDBLK
  5
52
100
AcDbEntity
  8
0
100
AcDbBlockEnd
  0
BLOCK
  5
53
100
AcDbEntity
  8
0
100
AcDbBlockBegin
  2
SXFMARKER_四角
 70
0
 10
0
 20
0
  0
POINT
  5
54
100
AcDbEntity
  8
0
100
AcDbPoint
 62
0
 10
0
 20
0
  0
LWPOLYLINE
  5
55
100
AcDbEntity
  8
0
100
AcDbPolyline
370
13
  6
CONTINUOUS
 62
0
 90
4
 70
129
 43
0
 10
-50
 20
50
 10
50
 20
50
 10
50
 20
-50
 10
-50
 20
-50
  0
ENDBLK
  5
56
100
AcDbEntity
  8
0
100
AcDbBlockEnd
  0
BLOCK
  5
57
100
AcDbEntity
  8
0
100
AcDbBlockBegin
  2
SXFMARKER_三角
 70
0
 10
0
 20
0
  0
POINT
  5
58
100
AcDbEntity
  8
0
100
AcDbPoint
 62
0
 10
0
 20
0
  0
LWPOLYLINE
  5
59
100
AcDbEntity
  8
0
100
AcDbPolyline
370
13
  6
CONTINUOUS
 62
0
 90
3
 70
129
 43
0
 10
0
 20
57.7350269
 10
50
 20
-28.8675135
 10
-50
 20
-28.8675135
  0
ENDBLK
  5
5A
100
AcDbEntity
  8
0
100
AcDbBlockEnd
  0
BLOCK
  5
5B
100
AcDbEntity
  8
0
100
AcDbBlockBegin
  2
SXFMARKER_バツ
 70
0
 10
0
 20
0
  0
LINE
  5
5C
100
AcDbEntity
  8
0
370
13
100
AcDbLine
  6
CONTINUOUS
 62
0
 10
-50
 20
50
 11
50
 21
-50
  0
LINE
  5
5D
100
AcDbEntity
  8
0
370
13
100
AcDbLine
  6
CONTINUOUS
 62
0
 10
-50
 20
-50
 11
50
 21
50
  0
ENDBLK
  5
5E
100
AcDbEntity
  8
0
100
AcDbBlockEnd
  0
BLOCK
  5
5F
100
AcDbEntity
  8
0
100
AcDbBlockBegin
  2
PAO_PROTMARK_0
 70
0
 10
0
 20
0
  0
POINT
  5
60
100
AcDbEntity
  8
0
100
AcDbPoint
 62
0
 10
0
 20
0
  0
HATCH
  5
61
100
AcDbEntity
  8
0
  6
CONTINUOUS
 62
0
100
AcDbHatch
 10
0
 20
0
210
0
220
0
230
1
  2
SOLID
 70
1
 71
0
 91
1
 92
1
 93
1
 72
2
 10
0
 20
0
 40
7
 50
0
 51
360
 73
1
 97
0
 75
0
 76
1
 98
1
 10
0
 20
0
  0
ENDBLK
  5
62
100
AcDbEntity
  8
0
100
AcDbBlockEnd
  0
BLOCK
  5
63
100
AcDbEntity
  8
0
100
AcDbBlockBegin
  2
PAO_PROTMARK_1
 70
0
 10
0
 20
0
  0
LINE
  5
64
100
AcDbEntity
  8
0
370
13
100
AcDbLine
  6
CONTINUOUS
 62
0
 10
-50
 20
0
 11
50
 21
0
  0
LINE
  5
65
100
AcDbEntity
  8
0
370
13
100
AcDbLine
  6
CONTINUOUS
 62
0
 10
0
 20
50
 11
0
 21
-50
  0
ENDBLK
  5
66
100
AcDbEntity
  8
0
100
AcDbBlockEnd
  0
BLOCK
  5
67
100
AcDbEntity
  8
0
100
AcDbBlockBegin
  2
PAO_PROTMARK_2
 70
0
 10
0
 20
0
  0
LINE
  5
68
100
AcDbEntity
  8
0
370
13
100
AcDbLine
  6
CONTINUOUS
 62
0
 10
-35.35534
 20
35.35534
 11
35.35534
 21
-35.35534
  0
LINE
  5
69
100
AcDbEntity
  8
0
370
13
100
AcDbLine
  6
CONTINUOUS
 62
0
 10
-35.35534
 20
-35.35534
 11
35.35534
 21
35.35534
  0
ENDBLK
  5
6A
100
AcDbEntity
  8
0
100
AcDbBlockEnd
  0
BLOCK
  5
6B
100
AcDbEntity
  8
0
100
AcDbBlockBegin
  2
PAO_PROTMARK_3
 70
0
 10
0
 20
0
  0
POINT
  5
6C
100
AcDbEntity
  8
0
100
AcDbPoint
 62
0
 10
0
 20
0
  0
CIRCLE
  5
6D
100
AcDbEntity
  8
0
370
13
100
AcDbCircle
  6
CONTINUOUS
 62
0
 10
0
 20
0
 40
50
  0
ENDBLK
  5
6E
100
AcDbEntity
  8
0
100
AcDbBlockEnd
  0
BLOCK
  5
6F
100
AcDbEntity
  8
0
100
AcDbBlockBegin
  2
PAO_PROTMARK_4
 70
0
 10
0
 20
0
  0
POINT
  5
70
100
AcDbEntity
  8
0
100
AcDbPoint
 62
0
 10
0
 20
0
  0
CIRCLE
  5
71
100
AcDbEntity
  8
0
370
13
100
AcDbCircle
  6
CONTINUOUS
 62
0
 10
0
 20
0
 40
50
  0
LINE
  5
72
100
AcDbEntity
  8
0
370
13
100
AcDbLine
  6
CONTINUOUS
 62
0
 10
-50
 20
0
 11
50
 21
0
  0
ENDBLK
  5
73
100
AcDbEntity
  8
0
100
AcDbBlockEnd
  0
BLOCK
  5
74
100
AcDbEntity
  8
0
100
AcDbBlockBegin
  2
PAO_PROTMARK_5
 70
0
 10
0
 20
0
  0
POINT
  5
75
100
AcDbEntity
  8
0
100
AcDbPoint
 62
0
 10
0
 20
0
  0
CIRCLE
  5
76
100
AcDbEntity
  8
0
370
13
100
AcDbCircle
  6
CONTINUOUS
 62
0
 10
0
 20
0
 40
50
  0
LINE
  5
77
100
AcDbEntity
  8
0
370
13
100
AcDbLine
  6
CONTINUOUS
 62
0
 10
0
 20
50
 11
0
 21
-50
  0
ENDBLK
  5
78
100
AcDbEntity
  8
0
100
AcDbBlockEnd
  0
BLOCK
  5
79
100
AcDbEntity
  8
0
100
AcDbBlockBegin
  2
PAO_PROTMARK_6
 70
0
 10
0
 20
0
  0
POINT
  5
7A
100
AcDbEntity
  8
0
100
AcDbPoint
 62
0
 10
0
 20
0
  0
CIRCLE
  5
7B
100
AcDbEntity
  8
0
370
13
100
AcDbCircle
  6
CONTINUOUS
 62
0
 10
0
 20
0
 40
50
  0
LINE
  5
7C
100
AcDbEntity
  8
0
370
13
100
AcDbLine
  6
CONTINUOUS
 62
0
 10
-50
 20
0
 11
50
 21
0
  0
LINE
  5
7D
100
AcDbEntity
  8
0
370
13
100
AcDbLine
  6
CONTINUOUS
 62
0
 10
0
 20
50
 11
0
 21
-50
  0
ENDBLK
  5
7E
100
AcDbEntity
  8
0
100
AcDbBlockEnd
  0
BLOCK
  5
7F
100
AcDbEntity
  8
0
100
AcDbBlockBegin
  2
PAO_PROTMARK_7
 70
0
 10
0
 20
0
  0
POINT
  5
80
100
AcDbEntity
  8
0
100
AcDbPoint
 62
0
 10
0
 20
0
  0
CIRCLE
  5
81
100
AcDbEntity
  8
0
370
13
100
AcDbCircle
  6
CONTINUOUS
 62
0
 10
0
 20
0
 40
50
  0
POINT
  5
82
100
AcDbEntity
  8
0
100
AcDbPoint
 62
0
 10
0
 20
0
  0
CIRCLE
  5
83
100
AcDbEntity
  8
0
370
13
100
AcDbCircle
  6
CONTINUOUS
 62
0
 10
0
 20
0
 40
30
  0
ENDBLK
  5
84
100
AcDbEntity
  8
0
100
AcDbBlockEnd
  0
BLOCK
  5
85
100
AcDbEntity
  8
0
100
AcDbBlockBegin
  2
PAO_PROTMARK_8
 70
0
 10
0
 20
0
  0
POINT
  5
86
100
AcDbEntity
  8
0
100
AcDbPoint
 62
0
 10
0
 20
0
  0
LWPOLYLINE
  5
87
100
AcDbEntity
  8
0
100
AcDbPolyline
370
13
  6
CONTINUOUS
 62
0
 90
3
 70
129
 43
0
 10
0
 20
57.7350269
 10
50
 20
-28.8675135
 10
-50
 20
-28.8675135
  0
ENDBLK
  5
88
100
AcDbEntity
  8
0
100
AcDbBlockEnd
  0
BLOCK
  5
89
100
AcDbEntity
  8
0
100
AcDbBlockBegin
  2
PAO_PROTMARK_9
 70
0
 10
0
 20
0
  0
POINT
  5
8A
100
AcDbEntity
  8
0
100
AcDbPoint
 62
0
 10
0
 20
0
  0
LWPOLYLINE
  5
8B
100
AcDbEntity
  8
0
100
AcDbPolyline
370
13
  6
CONTINUOUS
 62
0
 90
3
 70
129
 43
0
 10
0
 20
-57.7350269
 10
-50
 20
28.8675135
 10
50
 20
28.8675135
  0
ENDBLK
  5
8C
100
AcDbEntity
  8
0
100
AcDbBlockEnd
  0
BLOCK
  5
8D
100
AcDbEntity
  8
0
100
AcDbBlockBegin
  2
PAO_PROTMARK_10
 70
0
 10
0
 20
0
  0
POINT
  5
8E
100
AcDbEntity
  8
0
100
AcDbPoint
 62
0
 10
0
 20
0
  0
LWPOLYLINE
  5
8F
100
AcDbEntity
  8
0
100
AcDbPolyline
370
13
  6
CONTINUOUS
 62
0
 90
4
 70
129
 43
0
 10
-50
 20
50
 10
50
 20
50
 10
50
 20
-50
 10
-50
 20
-50
  0
ENDBLK
  5
90
100
AcDbEntity
  8
0
100
AcDbBlockEnd
  0
BLOCK
  5
91
100
AcDbEntity
  8
0
100
AcDbBlockBegin
  2
PAO_PROTMARK_11
 70
0
 10
0
 20
0
  0
POINT
  5
92
100
AcDbEntity
  8
0
100
AcDbPoint
 62
0
 10
0
 20
0
  0
LWPOLYLINE
  5
93
100
AcDbEntity
  8
0
100
AcDbPolyline
370
13
  6
CONTINUOUS
 62
0
 90
4
 70
129
 43
0
 10
-50
 20
50
 10
50
 20
50
 10
50
 20
-50
 10
-50
 20
-50
  0
LINE
  5
94
100
AcDbEntity
  8
0
370
13
100
AcDbLine
  6
CONTINUOUS
 62
0
 10
-50
 20
0
 11
50
 21
0
  0
LINE
  5
95
100
AcDbEntity
  8
0
370
13
100
AcDbLine
  6
CONTINUOUS
 62
0
 10
0
 20
50
 11
0
 21
-50
  0
ENDBLK
  5
96
100
AcDbEntity
  8
0
100
AcDbBlockEnd
  0
BLOCK
  5
97
100
AcDbEntity
  8
0
100
AcDbBlockBegin
  2
PAO_PROTMARK_12
 70
0
 10
0
 20
0
  0
POINT
  5
98
100
AcDbEntity
  8
0
100
AcDbPoint
 62
0
 10
0
 20
0
  0
LWPOLYLINE
  5
99
100
AcDbEntity
  8
0
100
AcDbPolyline
370
13
  6
CONTINUOUS
 62
0
 90
4
 70
129
 43
0
 10
-50
 20
50
 10
50
 20
50
 10
50
 20
-50
 10
-50
 20
-50
  0
LINE
  5
9A
100
AcDbEntity
  8
0
370
13
100
AcDbLine
  6
CONTINUOUS
 62
0
 10
-50
 20
50
 11
50
 21
-50
  0
LINE
  5
9B
100
AcDbEntity
  8
0
370
13
100
AcDbLine
  6
CONTINUOUS
 62
0
 10
-50
 20
-50
 11
50
 21
50
  0
ENDBLK
  5
9C
100
AcDbEntity
  8
0
100
AcDbBlockEnd
  0
BLOCK
  5
9D
100
AcDbEntity
  8
0
100
AcDbBlockBegin
  2
PAO_PROTMARK_13
 70
0
 10
0
 20
0
  0
POINT
  5
9E
100
AcDbEntity
  8
0
100
AcDbPoint
 62
0
 10
0
 20
0
  0
CIRCLE
  5
9F
100
AcDbEntity
  8
0
370
13
100
AcDbCircle
  6
CONTINUOUS
 62
0
 10
0
 20
0
 40
50
  0
LINE
  5
A0
100
AcDbEntity
  8
0
370
13
100
AcDbLine
  6
CONTINUOUS
 62
0
 10
-35.35534
 20
35.35534
 11
35.35534
 21
-35.35534
  0
LINE
  5
A1
100
AcDbEntity
  8
0
370
13
100
AcDbLine
  6
CONTINUOUS
 62
0
 10
-35.35534
 20
-35.35534
 11
35.35534
 21
35.35534
  0
ENDBLK
  5
A2
100
AcDbEntity
  8
0
100
AcDbBlockEnd
  0
BLOCK
  5
A3
100
AcDbEntity
  8
0
100
AcDbBlockBegin
  2
PAO_PROTMARK_14
 70
0
 10
0
 20
0
  0
POINT
  5
A4
100
AcDbEntity
  8
0
100
AcDbPoint
 62
0
 10
0
 20
0
  0
LWPOLYLINE
  5
A5
100
AcDbEntity
  8
0
100
AcDbPolyline
370
13
  6
CONTINUOUS
 62
0
 90
4
 70
129
 43
0
 10
-50
 20
50
 10
50
 20
50
 10
50
 20
-50
 10
-50
 20
-50
  0
POINT
  5
A6
100
AcDbEntity
  8
0
100
AcDbPoint
 62
0
 10
0
 20
0
  0
LWPOLYLINE
  5
A7
100
AcDbEntity
  8
0
100
AcDbPolyline
370
13
  6
CONTINUOUS
 62
0
 90
4
 70
129
 43
0
 10
0
 20
50
 10
50
 20
0
 10
0
 20
-50
 10
-50
 20
0
  0
ENDBLK
  5
A8
100
AcDbEntity
  8
0
100
AcDbBlockEnd
  0
ENDSEC
  0
SECTION
  2
ENTITIES
  0
LWPOLYLINE
  5
A9
100
AcDbEntity
  8
DefPoints
100
AcDbPolyline
  6
DASHED
 90
4
 70
129
 43
0
 10
0
 20
0
 10
0
 20
29700
 10
42000
 20
29700
 10
42000
 20
0
  0
LINE
  5
AA
100
AcDbEntity
  8
G_0-L_0
370
18
100
AcDbLine
  6
CONTINUOUS
 62
7
 10
41139.6913271
 20
2001.628484
 11
1140.875507
 21
2001.628484
  0
LINE
  5
AB
100
AcDbEntity
  8
G_0-L_0
370
18
100
AcDbLine
  6
CONTINUOUS
 62
7
 10
21640.875507
 20
2001.628484
 11
21640.875507
 21
801.628484
  0
LINE
  5
AC
100
AcDbEntity
  8
G_0-L_0
370
18
100
AcDbLine
  6
CONTINUOUS
 62
7
 10
30739.6913271
 20
21251.628484
 11
30739.6913271
 21
28801.628484
  0
LINE
  5
AD
100
AcDbEntity
  8
G_0-L_0
370
18
100
AcDbLine
  6
CONTINUOUS
 62
7
 10
9140.875507
 20
2001.628484
 11
9140.875507
 21
801.628484
  0
LINE
  5
AE
100
AcDbEntity
  8
G_0-L_0
370
18
100
AcDbLine
  6
CONTINUOUS
 62
7
 10
3140.875507
 20
801.628484
 11
3140.875507
 21
2001.628484
  0
LINE
  5
AF
100
AcDbEntity
  8
G_0-L_0
370
18
100
AcDbLine
  6
CONTINUOUS
 62
7
 10
30739.6913271
 20
27601.628484
 11
41139.6913271
 21
27601.628484
  0
LINE
  5
B0
100
AcDbEntity
  8
G_0-L_0
370
18
100
AcDbLine
  6
CONTINUOUS
 62
7
 10
33239.6913271
 20
27601.628484
 11
33239.6913271
 21
28801.628484
  0
LINE
  5
B1
100
AcDbEntity
  8
G_0-L_0
370
18
100
AcDbLine
  6
CONTINUOUS
 62
7
 10
41139.6913271
 20
801.628484
 11
1140.875507
 21
801.628484
  0
LINE
  5
B2
100
AcDbEntity
  8
G_0-L_0
370
18
100
AcDbLine
  6
CONTINUOUS
 62
7
 10
11640.875507
 20
2001.628484
 11
11640.875507
 21
801.628484
  0
LINE
  5
B3
100
AcDbEntity
  8
G_0-L_0
370
18
100
AcDbLine
  6
CONTINUOUS
 62
7
 10
24140.875507
 20
2001.628484
 11
24140.875507
 21
801.628484
  0
LINE
  5
B4
100
AcDbEntity
  8
G_0-L_0
370
18
100
AcDbLine
  6
CONTINUOUS
 62
7
 10
30739.6913271
 20
21251.628484
 11
41139.6913271
 21
21251.628484
  0
LINE
  5
B5
100
AcDbEntity
  8
G_0-L_0
370
18
100
AcDbLine
  6
CONTINUOUS
 62
7
 10
30739.6913271
 20
26751.628484
 11
41139.6913271
 21
26751.628484
  0
LINE
  5
B6
100
AcDbEntity
  8
G_0-L_0
370
18
100
AcDbLine
  6
CONTINUOUS
 62
7
 10
30739.6913271
 20
801.628484
 11
30739.6913271
 21
2001.628484
  0
LINE
  5
B7
100
AcDbEntity
  8
G_0-L_0
370
13
100
AcDbLine
  6
CONTINUOUS
 62
7
 10
35564.7677034
 20
2773.9963186
 11
34972.1386575
 21
2181.3672727
  0
LINE
  5
B8
100
AcDbEntity
  8
G_0-L_0
370
18
100
AcDbLine
  6
CONTINUOUS
 62
7
 10
1140.875507
 20
28801.628484
 11
1140.875507
 21
801.628484
  0
LINE
  5
B9
100
AcDbEntity
  8
G_0-L_0
370
18
100
AcDbLine
  6
CONTINUOUS
 62
7
 10
41139.6913271
 20
28801.628484
 11
41139.6913271
 21
801.628484
  0
LINE
  5
BA
100
AcDbEntity
  8
G_0-L_0
370
18
100
AcDbLine
  6
CONTINUOUS
 62
7
 10
1140.875507
 20
28801.628484
 11
41139.6913271
 21
28801.628484
  0
TEXT
  5
BB
100
AcDbEntity
  8
G_0-L_0
100
AcDbText
 62
7
 10
9337.7613924
 20
1235.1745405
 40
346.1538462
  1
工事事業者名
 41
0.8
 50
0
  7
ゴシック
100
AcDbText
  0
TEXT
  5
BC
100
AcDbEntity
  8
G_0-L_0
100
AcDbText
 62
7
 10
21935.5722069
 20
1215.8661521
 40
346.1538462
  1
工 事 店 名
 41
0.8
 50
0
  7
ゴシック
100
AcDbText
  0
TEXT
  5
BD
100
AcDbEntity
  8
G_0-L_0
100
AcDbText
 62
7
 10
31058.5258522
 20
27005.2167198
 40
346.1538462
  1
案 内 図 Ｈ〇〇年 〇〇 部 Ｐ.〇〇〇 〇－〇 申請地
 41
0.888888888888889
 50
0
  7
ゴシック
100
AcDbText
  0
TEXT
  5
BE
100
AcDbEntity
  8
G_0-L_0
100
AcDbText
 62
7
 10
1248.7650175
 20
1222.1457158
 40
346.1538462
  1
申込年月日
 41
0.8
 50
0
  7
ゴシック
100
AcDbText
  0
TEXT
  5
BF
100
AcDbEntity
  8
G_0-L_0
100
AcDbText
 62
7
 10
31004.771246
 20
28034.0519268
 40
346.1538462
  1
工 事 番 号
 41
0.8
 50
0
  7
ゴシック
100
AcDbText
  0
TEXT
  5
C0
100
AcDbEntity
  8
G_0-L_0
100
AcDbText
 62
7
 10
35371.6898105
 20
2221.1138216
 40
269.2307692
  1
１
 41
0.857142857142857
 50
0
  7
ゴシック
100
AcDbText
  0
TEXT
  5
C1
100
AcDbEntity
  8
G_0-L_0
100
AcDbText
 62
7
 10
34857.1817915
 20
2523.4224994
 40
269.2307692
  1
１
 41
0.857142857142857
 50
0
  7
ゴシック
100
AcDbText
  0
ENDSEC
  0
SECTION
  2
OBJECTS
  0
DICTIONARY
  5
C
100
AcDbDictionary
  3
ACAD_GROUP
350
D
  3
ACAD_MLINESTYLE
350
E
  3
ACAD_LAYOUT
350
C2
  3
AcDbVariableDictionary
350
C3
  0
DICTIONARY
  5
D
102
{ACAD_REACTORS
330
C
102
}
100
AcDbDictionary
  0
DICTIONARY
  5
E
102
{ACAD_REACTORS
330
C
102
}
100
AcDbDictionary
  3
STANDARD
350
F
  0
MLINESTYLE
  5
F
102
{ACAD_REACTORS
330
E
102
}
100
AcDbMlineStyle
  2
STANDARD
 70
0
  3

 71
2
 49
0.5
 62
256
  6
BYLAYER
 49
-0.5
 62
256
  6
BYLAYER
  0
DICTIONARY
  5
C2
102
{ACAD_REACTORS
330
C
102
}
100
AcDbDictionary
281
1
  3
Model
350
C4
  0
LAYOUT
  5
C4
102
{ACAD_REACTORS
330
C2
102
}
100
AcDbPlotSettings
  1

  2
SHARP MX-3650FN SPDL2-c_K
  4
A3
  6
用紙枠
 44
420
 45
297
142
1
143
100
 70
1700
 72
1
 73
1
 74
3
  7
monochrome.ctb
100
AcDbLayout
  1
Model
 70
1
 71
0
330
26
331
11
  0
DICTIONARY
  5
C3
102
{ACAD_REACTORS
330
C
102
}
100
AcDbDictionary
281
1
  3
CANNOSCALE
350
C5
  0
DICTIONARYVAR
  5
C5
102
{ACAD_REACTORS
330
C3
102
}
100
DictionaryVariables
280
0
  1
1:100
  0
ENDSEC
  0
EOF
