  0
SECTION
  2
HEADER
  9
$ACADVER
  1
AC1032
  9
$ACADMAINTVER
 90
        4
  9
$DWGCODEPAGE
  3
ANSI_932
  9
$REQUIREDVERSIONS
160
                 0
  9
$LASTSAVEDBY
  1
1191310
  9
$INSBASE
 10
0.0
 20
0.0
 30
0.0
  9
$EXTMIN
 10
-0.000000000003638
 20
-0.000000000003638
 30
0.0
  9
$EXTMAX
 10
42000.0
 20
29700.0
 30
0.0
  9
$LIMMIN
 10
0.0
 20
0.0
  9
$LIMMAX
 10
42000.0
 20
29700.0
  9
$ORTHOMODE
 70
     1
  9
$REGENMODE
 70
     1
  9
$FILLMODE
 70
     1
  9
$QTEXTMODE
 70
     0
  9
$MIRRTEXT
 70
     1
  9
$LTSCALE
 40
1.0
  9
$ATTMODE
 70
     1
  9
$TEXTSIZE
 40
2.5
  9
$TRACEWID
 40
0.05
  9
$TEXTSTYLE
  7
STANDARD
  9
$CLAYER
  8
0
  9
$CELTYPE
  6
CONTINUOUS
  9
$CECOLOR
 62
   256
  9
$CELTSCALE
 40
1.0
  9
$DISPSILH
 70
     0
  9
$DIMSCALE
 40
1.0
  9
$DIMASZ
 40
0.18
  9
$DIMEXO
 40
0.0625
  9
$DIMDLI
 40
0.38
  9
$DIMRND
 40
0.0
  9
$DIMDLE
 40
0.0
  9
$DIMEXE
 40
0.18
  9
$DIMTP
 40
0.0
  9
$DIMTM
 40
0.0
  9
$DIMTXT
 40
0.18
  9
$DIMCEN
 40
0.09
  9
$DIMTSZ
 40
0.0
  9
$DIMTOL
 70
     0
  9
$DIMLIM
 70
     0
  9
$DIMTIH
 70
     1
  9
$DIMTOH
 70
     1
  9
$DIMSE1
 70
     0
  9
$DIMSE2
 70
     0
  9
$DIMTAD
 70
     0
  9
$DIMZIN
 70
     0
  9
$DIMBLK
  1

  9
$DIMASO
 70
     1
  9
$DIMSHO
 70
     1
  9
$DIMPOST
  1

  9
$DIMAPOST
  1

  9
$DIMALT
 70
     0
  9
$DIMALTD
 70
     2
  9
$DIMALTF
 40
25.4
  9
$DIMLFAC
 40
1.0
  9
$DIMTOFL
 70
     0
  9
$DIMTVP
 40
0.0
  9
$DIMTIX
 70
     0
  9
$DIMSOXD
 70
     0
  9
$DIMSAH
 70
     0
  9
$DIMBLK1
  1

  9
$DIMBLK2
  1

  9
$DIMSTYLE
  2
ISO-25
  9
$DIMCLRD
 70
     0
  9
$DIMCLRE
 70
     0
  9
$DIMCLRT
 70
     0
  9
$DIMTFAC
 40
1.0
  9
$DIMGAP
 40
0.09
  9
$DIMJUST
 70
     0
  9
$DIMSD1
 70
     0
  9
$DIMSD2
 70
     0
  9
$DIMTOLJ
 70
     1
  9
$DIMTZIN
 70
     0
  9
$DIMALTZ
 70
     0
  9
$DIMALTTZ
 70
     0
  9
$DIMUPT
 70
     0
  9
$DIMDEC
 70
     4
  9
$DIMTDEC
 70
     4
  9
$DIMALTU
 70
     2
  9
$DIMALTTD
 70
     2
  9
$DIMTXSTY
  7
STANDARD
  9
$DIMAUNIT
 70
     0
  9
$DIMADEC
 70
     0
  9
$DIMALTRND
 40
0.0
  9
$DIMAZIN
 70
     0
  9
$DIMDSEP
 70
    46
  9
$DIMATFIT
 70
     3
  9
$DIMFRAC
 70
     0
  9
$DIMLDRBLK
  1

  9
$DIMLUNIT
 70
     2
  9
$DIMLWD
 70
    -2
  9
$DIMLWE
 70
    -2
  9
$DIMTMOVE
 70
     2
  9
$DIMFXL
 40
1.0
  9
$DIMFXLON
 70
     0
  9
$DIMJOGANG
 40
0.7853981633974483
  9
$DIMTFILL
 70
     0
  9
$DIMTFILLCLR
 70
     0
  9
$DIMARCSYM
 70
     0
  9
$DIMLTYPE
  6

  9
$DIMLTEX1
  6

  9
$DIMLTEX2
  6

  9
$DIMTXTDIRECTION
 70
     0
  9
$LUNITS
 70
     2
  9
$LUPREC
 70
     7
  9
$SKETCHINC
 40
0.1
  9
$FILLETRAD
 40
0.5
  9
$AUNITS
 70
     0
  9
$AUPREC
 70
     0
  9
$MENU
  1
.
  9
$ELEVATION
 40
0.0
  9
$PELEVATION
 40
0.0
  9
$THICKNESS
 40
0.0
  9
$LIMCHECK
 70
     0
  9
$CHAMFERA
 40
0.0
  9
$CHAMFERB
 40
0.0
  9
$CHAMFERC
 40
0.0
  9
$CHAMFERD
 40
0.0
  9
$SKPOLY
 70
     0
  9
$TDCREATE
 40
2447893.375
  9
$TDUCREATE
 40
0.0
  9
$TDUPDATE
 40
2459761.35533684
  9
$TDUUPDATE
 40
2459760.98033684
  9
$TDINDWG
 40
0.1693544213
  9
$TDUSRTIMER
 40
0.0
  9
$USRTIMER
 70
     0
  9
$ANGBASE
 50
0.0
  9
$ANGDIR
 70
     0
  9
$PDMODE
 70
     0
  9
$PDSIZE
 40
0.0
  9
$PLINEWID
 40
0.0
  9
$SPLFRAME
 70
     0
  9
$SPLINETYPE
 70
     6
  9
$SPLINESEGS
 70
     8
  9
$HANDSEED
  5
739
  9
$SURFTAB1
 70
     6
  9
$SURFTAB2
 70
     6
  9
$SURFTYPE
 70
     6
  9
$SURFU
 70
     6
  9
$SURFV
 70
     6
  9
$UCSBASE
  2

  9
$UCSNAME
  2

  9
$UCSORG
 10
0.0
 20
0.0
 30
0.0
  9
$UCSXDIR
 10
1.0
 20
0.0
 30
0.0
  9
$UCSYDIR
 10
0.0
 20
1.0
 30
0.0
  9
$UCSORTHOREF
  2

  9
$UCSORTHOVIEW
 70
     0
  9
$UCSORGTOP
 10
0.0
 20
0.0
 30
0.0
  9
$UCSORGBOTTOM
 10
0.0
 20
0.0
 30
0.0
  9
$UCSORGLEFT
 10
0.0
 20
0.0
 30
0.0
  9
$UCSORGRIGHT
 10
0.0
 20
0.0
 30
0.0
  9
$UCSORGFRONT
 10
0.0
 20
0.0
 30
0.0
  9
$UCSORGBACK
 10
0.0
 20
0.0
 30
0.0
  9
$PUCSBASE
  2

  9
$PUCSNAME
  2

  9
$PUCSORG
 10
0.0
 20
0.0
 30
0.0
  9
$PUCSXDIR
 10
1.0
 20
0.0
 30
0.0
  9
$PUCSYDIR
 10
0.0
 20
1.0
 30
0.0
  9
$PUCSORTHOREF
  2

  9
$PUCSORTHOVIEW
 70
     0
  9
$PUCSORGTOP
 10
0.0
 20
0.0
 30
0.0
  9
$PUCSORGBOTTOM
 10
0.0
 20
0.0
 30
0.0
  9
$PUCSORGLEFT
 10
0.0
 20
0.0
 30
0.0
  9
$PUCSORGRIGHT
 10
0.0
 20
0.0
 30
0.0
  9
$PUCSORGFRONT
 10
0.0
 20
0.0
 30
0.0
  9
$PUCSORGBACK
 10
0.0
 20
0.0
 30
0.0
  9
$USERI1
 70
     0
  9
$USERI2
 70
     0
  9
$USERI3
 70
     0
  9
$USERI4
 70
     0
  9
$USERI5
 70
     0
  9
$USERR1
 40
0.0
  9
$USERR2
 40
0.0
  9
$USERR3
 40
0.0
  9
$USERR4
 40
0.0
  9
$USERR5
 40
0.0
  9
$WORLDVIEW
 70
     1
  9
$SHADEDGE
 70
     3
  9
$SHADEDIF
 70
    70
  9
$TILEMODE
 70
     0
  9
$MAXACTVP
 70
    64
  9
$PINSBASE
 10
0.0
 20
0.0
 30
0.0
  9
$PLIMCHECK
 70
     0
  9
$PEXTMIN
 10
15.0979381443299
 20
17.31672394043528
 30
0.0
  9
$PEXTMAX
 10
241.9020618556701
 20
177.6832760595647
 30
0.0
  9
$PLIMMIN
 10
-20.0
 20
-7.5
  9
$PLIMMAX
 10
277.0
 20
202.5
  9
$UNITMODE
 70
     0
  9
$VISRETAIN
 70
     1
  9
$PLINEGEN
 70
     0
  9
$PSLTSCALE
 70
     1
  9
$TREEDEPTH
 70
  3020
  9
$CMLSTYLE
  2
STANDARD
  9
$CMLJUST
 70
     0
  9
$CMLSCALE
 40
1.0
  9
$PROXYGRAPHICS
 70
     1
  9
$MEASUREMENT
 70
     1
  9
$CELWEIGHT
370
    -1
  9
$ENDCAPS
280
     0
  9
$JOINSTYLE
280
     0
  9
$LWDISPLAY
290
     0
  9
$INSUNITS
 70
     0
  9
$HYPERLINKBASE
  1

  9
$STYLESHEET
  1

  9
$XEDIT
290
     1
  9
$CEPSNTYPE
380
     0
  9
$PSTYLEMODE
290
     1
  9
$FINGERPRINTGUID
  2
{E3931F7F-E6D5-4B83-A760-81C0B23F0CD7}
  9
$VERSIONGUID
  2
{FAEB1C32-E019-11D5-929B-00C0DF256EC4}
  9
$EXTNAMES
290
     1
  9
$PSVPSCALE
 40
0.0
  9
$OLESTARTUP
290
     0
  9
$SORTENTS
280
   127
  9
$INDEXCTL
280
     0
  9
$HIDETEXT
280
     1
  9
$XCLIPFRAME
280
     2
  9
$HALOGAP
280
     0
  9
$OBSCOLOR
 70
   257
  9
$OBSLTYPE
280
     0
  9
$INTERSECTIONDISPLAY
280
     0
  9
$INTERSECTIONCOLOR
 70
   257
  9
$DIMASSOC
280
     2
  9
$PROJECTNAME
  1

  9
$CAMERADISPLAY
290
     0
  9
$LENSLENGTH
 40
50.0
  9
$CAMERAHEIGHT
 40
0.0
  9
$STEPSPERSEC
 40
2.0
  9
$STEPSIZE
 40
6.0
  9
$3DDWFPREC
 40
2.0
  9
$PSOLWIDTH
 40
0.25
  9
$PSOLHEIGHT
 40
4.0
  9
$LOFTANG1
 40
1.570796326794897
  9
$LOFTANG2
 40
1.570796326794897
  9
$LOFTMAG1
 40
0.0
  9
$LOFTMAG2
 40
0.0
  9
$LOFTPARAM
 70
     7
  9
$LOFTNORMALS
280
     1
  9
$LATITUDE
 40
37.795
  9
$LONGITUDE
 40
-122.394
  9
$NORTHDIRECTION
 40
0.0
  9
$TIMEZONE
 70
 -8000
  9
$LIGHTGLYPHDISPLAY
280
     1
  9
$TILEMODELIGHTSYNCH
280
     1
  9
$CMATERIAL
347
F5
  9
$SOLIDHIST
280
     1
  9
$SHOWHIST
280
     1
  9
$DWFFRAME
280
     2
  9
$DGNFRAME
280
     0
  9
$REALWORLDSCALE
290
     1
  9
$INTERFERECOLOR
 62
   256
  9
$INTERFEREOBJVS
345
E4
  9
$INTERFEREVPVS
346
E1
  9
$CSHADOW
280
     0
  9
$SHADOWPLANELOCATION
 40
0.0
  0
ENDSEC
  0
SECTION
  2
CLASSES
  0
CLASS
  1
DICTIONARYVAR
  2
AcDbDictionaryVar
  3
ObjectDBX Classes
 90
        0
 91
        4
280
     0
281
     0
  0
CLASS
  1
SCALE
  2
AcDbScale
  3
ObjectDBX Classes
 90
     1153
 91
        4
280
     0
281
     0
  0
CLASS
  1
VISUALSTYLE
  2
AcDbVisualStyle
  3
ObjectDBX Classes
 90
     4095
 91
        4
280
     0
281
     0
  0
CLASS
  1
MATERIAL
  2
AcDbMaterial
  3
ObjectDBX Classes
 90
     1153
 91
        4
280
     0
281
     0
  0
CLASS
  1
TABLESTYLE
  2
AcDbTableStyle
  3
ObjectDBX Classes
 90
     4095
 91
        4
280
     0
281
     0
  0
CLASS
  1
MLEADERSTYLE
  2
AcDbMLeaderStyle
  3
ACDB_MLEADERSTYLE_CLASS
 90
     4095
 91
        4
280
     0
281
     0
  0
CLASS
  1
ACAD_TABLE
  2
AcDbTable
  3
ObjectDBX Classes
 90
     1025
 91
        4
280
     0
281
     1
  0
CLASS
  1
CELLSTYLEMAP
  2
AcDbCellStyleMap
  3
ObjectDBX Classes
 90
     1152
 91
        4
280
     0
281
     0
  0
ENDSEC
  0
SECTION
  2
TABLES
  0
TABLE
  2
VPORT
  5
8
330
0
100
AcDbSymbolTable
 70
     1
  0
VPORT
  5
11
330
8
100
AcDbSymbolTableRecord
100
AcDbViewportTableRecord
  2
*ACTIVE
 70
     0
 10
0.0
 20
0.0
 11
1.0
 21
1.0
 12
-10953.56826268815
 22
25613.69364528286
 13
0.0
 23
0.0
 14
1.0
 24
1.0
 15
0.0
 25
0.0
 16
0.0
 26
0.0
 36
1.0
 17
0.0
 27
0.0
 37
0.0
 40
47520.00000000005
 41
2.421647819063005
 42
50.0
 43
0.0
 44
0.0
 50
0.0
 51
0.0
 71
     0
 72
  1000
 73
     1
 74
     1
 75
     0
 76
     0
 77
     0
 78
     0
281
     0
 65
     1
110
0.0
120
0.0
130
0.0
111
1.0
121
0.0
131
0.0
112
0.0
122
1.0
132
0.0
 79
     0
146
0.0
348
E0
 60
     3
 61
     5
292
     1
282
     1
141
0.0
142
0.0
 63
   250
  0
ENDTAB
  0
TABLE
  2
LTYPE
  5
5
330
0
100
AcDbSymbolTable
 70
     8
  0
LTYPE
  5
12
330
5
100
AcDbSymbolTableRecord
100
AcDbLinetypeTableRecord
  2
BYBLOCK
 70
     0
  3

 72
    65
 73
     0
 40
0.0
  0
LTYPE
  5
13
330
5
100
AcDbSymbolTableRecord
100
AcDbLinetypeTableRecord
  2
BYLAYER
 70
     0
  3

 72
    65
 73
     0
 40
0.0
  0
LTYPE
  5
14
330
5
100
AcDbSymbolTableRecord
100
AcDbLinetypeTableRecord
  2
CONTINUOUS
 70
     0
  3
Continuous
 72
    65
 73
     0
 40
0.0
  0
LTYPE
  5
15
330
5
100
AcDbSymbolTableRecord
100
AcDbLinetypeTableRecord
  2
DASHED
 70
     0
  3
Dashed
 72
    65
 73
     2
 40
120.0
 49
50.0
 74
     0
 49
-70.0
 74
     0
  0
LTYPE
  5
16
330
5
100
AcDbSymbolTableRecord
100
AcDbLinetypeTableRecord
  2
DASHEDX2
 70
     0
  3
DashedX2
 72
    65
 73
     2
 40
200.0
 49
100.0
 74
     0
 49
-100.0
 74
     0
  0
LTYPE
  5
17
330
5
100
AcDbSymbolTableRecord
100
AcDbLinetypeTableRecord
  2
DASHED2
 70
     0
  3
Dashed2
 72
    65
 73
     2
 40
120.0
 49
50.0
 74
     0
 49
-70.0
 74
     0
  0
LTYPE
  5
18
330
5
100
AcDbSymbolTableRecord
100
AcDbLinetypeTableRecord
  2
CENTER2
 70
     0
  3
Center2
 72
    65
 73
     4
 40
800.0
 49
500.0
 74
     0
 49
-100.0
 74
     0
 49
100.0
 74
     0
 49
-100.0
 74
     0
  0
LTYPE
  5
19
330
5
100
AcDbSymbolTableRecord
100
AcDbLinetypeTableRecord
  2
CENTER
 70
     0
  3
Center
 72
    65
 73
     4
 40
800.0
 49
500.0
 74
     0
 49
-100.0
 74
     0
 49
100.0
 74
     0
 49
-100.0
 74
     0
  0
LTYPE
  5
1A
330
5
100
AcDbSymbolTableRecord
100
AcDbLinetypeTableRecord
  2
PHANTOM2
 70
     0
  3
Phantom2
 72
    65
 73
     6
 40
650.0
 49
150.0
 74
     0
 49
-100.0
 74
     0
 49
100.0
 74
     0
 49
-100.0
 74
     0
 49
100.0
 74
     0
 49
-100.0
 74
     0
  0
LTYPE
  5
1B
330
5
100
AcDbSymbolTableRecord
100
AcDbLinetypeTableRecord
  2
PHANTOM
 70
     0
  3
Phantom
 72
    65
 73
     6
 40
750.0
 49
250.0
 74
     0
 49
-100.0
 74
     0
 49
100.0
 74
     0
 49
-100.0
 74
     0
 49
100.0
 74
     0
 49
-100.0
 74
     0
  0
ENDTAB
  0
TABLE
  2
LAYER
  5
2
102
{ACAD_XDICTIONARY
360
630
102
}
330
0
100
AcDbSymbolTable
 70
     9
  0
LAYER
  5
1C
102
{ACAD_XDICTIONARY
360
62A
102
}
330
2
100
AcDbSymbolTableRecord
100
AcDbLayerTableRecord
  2
0
 70
     0
 62
     7
  6
CONTINUOUS
370
    -3
390
0
347
F7
348
0
1001
AcAecLayerStandard
1000

1000

1001
AcCmTransparency
1071
 33554687
  0
LAYER
  5
1D
102
{ACAD_XDICTIONARY
360
62C
102
}
330
2
100
AcDbSymbolTableRecord
100
AcDbLayerTableRecord
  2
DefPoints
 70
     0
 62
     9
  6
CONTINUOUS
290
     0
370
    -3
390
0
347
F7
348
0
1001
AcAecLayerStandard
1000

1000

1001
AcCmTransparency
1071
 33554687
  0
LAYER
  5
1E
102
{ACAD_XDICTIONARY
360
62E
102
}
330
2
100
AcDbSymbolTableRecord
100
AcDbLayerTableRecord
  2
G_0-L_0
 70
     0
 62
     7
  6
CONTINUOUS
370
    -3
390
0
347
F7
348
0
1001
AcAecLayerStandard
1000

1000

1001
AcCmTransparency
1071
 33554687
  0
LAYER
  5
157
102
{ACAD_XDICTIONARY
360
158
102
}
330
2
100
AcDbSymbolTableRecord
100
AcDbLayerTableRecord
  2
G_0-L_1
 70
     0
 62
     7
  6
CONTINUOUS
370
    -3
390
0
347
F7
348
0
1001
AcAecLayerStandard
1000

1000

1001
AcCmTransparency
1071
 33554687
  0
LAYER
  5
1CE
102
{ACAD_XDICTIONARY
360
1CF
102
}
330
2
100
AcDbSymbolTableRecord
100
AcDbLayerTableRecord
  2
G_0-L_2
 70
     0
 62
     7
  6
CONTINUOUS
370
    -3
390
0
347
F7
348
0
1001
AcAecLayerStandard
1000

1000

1001
AcCmTransparency
1071
 33554687
  0
LAYER
  5
2DF
102
{ACAD_XDICTIONARY
360
2E0
102
}
330
2
100
AcDbSymbolTableRecord
100
AcDbLayerTableRecord
  2
G_0-L_4
 70
     0
 62
     7
  6
CONTINUOUS
370
    -3
390
0
347
F7
348
0
1001
AcAecLayerStandard
1000

1000

1001
AcCmTransparency
1071
 33554687
  0
LAYER
  5
2E2
102
{ACAD_XDICTIONARY
360
2E3
102
}
330
2
100
AcDbSymbolTableRecord
100
AcDbLayerTableRecord
  2
G_0-L_5
 70
     0
 62
     7
  6
CONTINUOUS
370
    -3
390
0
347
F7
348
0
1001
AcAecLayerStandard
1000

1000

1001
AcCmTransparency
1071
 33554687
  0
LAYER
  5
428
102
{ACAD_XDICTIONARY
360
429
102
}
330
2
100
AcDbSymbolTableRecord
100
AcDbLayerTableRecord
  2
G_0-L_3
 70
     0
 62
     7
  6
CONTINUOUS
370
    -3
390
0
347
F7
348
0
1001
AcAecLayerStandard
1000

1000

1001
AcCmTransparency
1071
 33554687
  0
LAYER
  5
42B
102
{ACAD_XDICTIONARY
360
42C
102
}
330
2
100
AcDbSymbolTableRecord
100
AcDbLayerTableRecord
  2
G_1-L_0
 70
     0
 62
     7
  6
CONTINUOUS
370
    -3
390
0
347
F7
348
0
1001
AcAecLayerStandard
1000

1000

1001
AcCmTransparency
1071
 33554687
  0
ENDTAB
  0
TABLE
  2
STYLE
  5
3
330
0
100
AcDbSymbolTable
 70
     5
  0
STYLE
  5
1F
330
3
100
AcDbSymbolTableRecord
100
AcDbTextStyleTableRecord
  2
STANDARD
 70
     0
 40
0.0
 41
1.0
 50
0.0
 71
     0
 42
2.5
  3
txt
  4

  0
STYLE
  5
20
330
3
100
AcDbSymbolTableRecord
100
AcDbTextStyleTableRecord
  2
ゴシック
 70
     0
 40
0.0
 41
1.0
 50
0.0
 71
     0
 42
2.5
  3
msgothic.ttc
  4

1001
ACAD
1000
MS Gothic
1071
        0
  0
STYLE
  5
21
330
3
100
AcDbSymbolTableRecord
100
AcDbTextStyleTableRecord
  2
明朝
 70
     0
 40
0.0
 41
1.0
 50
0.0
 71
     0
 42
2.5
  3

  4

1001
ACAD
1000
MS Mincho
1071
        0
  0
STYLE
  5
22
330
3
100
AcDbSymbolTableRecord
100
AcDbTextStyleTableRecord
  2
縦書ゴシック
 70
     0
 40
0.0
 41
1.0
 50
0.0
 71
     0
 42
2.5
  3

  4

1001
ACAD
1000
@MS Gothic
1071
        0
  0
STYLE
  5
23
330
3
100
AcDbSymbolTableRecord
100
AcDbTextStyleTableRecord
  2
縦書明朝
 70
     0
 40
0.0
 41
1.0
 50
0.0
 71
     0
 42
2.5
  3

  4

1001
ACAD
1000
@MS Mincho
1071
        0
  0
ENDTAB
  0
TABLE
  2
VIEW
  5
6
330
0
100
AcDbSymbolTable
 70
     1
  0
VIEW
  5
24
330
6
100
AcDbSymbolTableRecord
100
AcDbViewTableRecord
  2
用紙枠
 70
     0
 40
29700.0
 10
21000.0
 20
14850.0
 41
42000.0
 11
0.0
 21
0.0
 31
1.0
 12
0.0
 22
0.0
 32
0.0
 42
50.0
 43
0.0
 44
0.0
 50
0.0
 71
     0
281
     0
 72
     0
 73
     0
348
E0
  0
ENDTAB
  0
TABLE
  2
UCS
  5
7
330
0
100
AcDbSymbolTable
 70
     0
  0
ENDTAB
  0
TABLE
  2
APPID
  5
9
330
0
100
AcDbSymbolTable
 70
     7
  0
APPID
  5
25
330
9
100
AcDbSymbolTableRecord
100
AcDbRegAppTableRecord
  2
ACAD
 70
     0
  0
APPID
  5
FC
330
9
100
AcDbSymbolTableRecord
100
AcDbRegAppTableRecord
  2
ACAD_MLEADERVER
 70
     0
  0
APPID
  5
105
330
9
100
AcDbSymbolTableRecord
100
AcDbRegAppTableRecord
  2
AcAecLayerStandard
 70
     0
  0
APPID
  5
106
330
9
100
AcDbSymbolTableRecord
100
AcDbRegAppTableRecord
  2
AcCmTransparency
 70
     0
  0
APPID
  5
108
330
9
100
AcDbSymbolTableRecord
100
AcDbRegAppTableRecord
  2
PLOTTRANSPARENCY
 70
     0
  0
APPID
  5
109
330
9
100
AcDbSymbolTableRecord
100
AcDbRegAppTableRecord
  2
ACAD_PSEXT
 70
     0
  0
APPID
  5
1C6
330
9
100
AcDbSymbolTableRecord
100
AcDbRegAppTableRecord
  2
AcadAnnotative
 70
     0
  0
ENDTAB
  0
TABLE
  2
DIMSTYLE
  5
10
330
0
100
AcDbSymbolTable
 70
     1
100
AcDbDimStyleTable
  0
DIMSTYLE
105
C6
330
10
100
AcDbSymbolTableRecord
100
AcDbDimStyleTableRecord
  2
ISO-25
 70
     0
 41
2.5
 42
0.625
 43
3.75
 44
1.25
 73
     0
 74
     0
 77
     1
 78
     8
140
2.5
141
2.5
143
0.03937007874016
147
0.625
171
     3
172
     1
178
     0
271
     2
272
     2
274
     3
278
    44
283
     0
284
     8
340
1F
  0
ENDTAB
  0
TABLE
  2
BLOCK_RECORD
  5
1
330
0
100
AcDbSymbolTable
 70
    46
  0
BLOCK_RECORD
  5
26
330
1
100
AcDbSymbolTableRecord
100
AcDbBlockTableRecord
  2
*MODEL_SPACE
340
C4
 70
     0
280
     1
281
     0
  0
BLOCK_RECORD
  5
27
330
1
100
AcDbSymbolTableRecord
100
AcDbBlockTableRecord
  2
*PAPER_SPACE
340
DA
 70
     0
280
     1
281
     0
  0
BLOCK_RECORD
  5
28
330
1
100
AcDbSymbolTableRecord
100
AcDbBlockTableRecord
  2
SXFMARKER_星
340
0
 70
     0
280
     1
281
     0
  0
BLOCK_RECORD
  5
29
330
1
100
AcDbSymbolTableRecord
100
AcDbBlockTableRecord
  2
SXFMARKER_円
340
0
 70
     0
280
     1
281
     0
  0
BLOCK_RECORD
  5
2A
330
1
100
AcDbSymbolTableRecord
100
AcDbBlockTableRecord
  2
SXFMARKER_実点
340
0
 70
     0
280
     1
281
     0
  0
BLOCK_RECORD
  5
2B
330
1
100
AcDbSymbolTableRecord
100
AcDbBlockTableRecord
  2
SXFMARKER_プラス
340
0
 70
     0
280
     1
281
     0
  0
BLOCK_RECORD
  5
2C
330
1
100
AcDbSymbolTableRecord
100
AcDbBlockTableRecord
  2
SXFMARKER_四角
340
0
 70
     0
280
     1
281
     0
  0
BLOCK_RECORD
  5
2D
330
1
100
AcDbSymbolTableRecord
100
AcDbBlockTableRecord
  2
SXFMARKER_三角
340
0
 70
     0
280
     1
281
     0
  0
BLOCK_RECORD
  5
2E
330
1
100
AcDbSymbolTableRecord
100
AcDbBlockTableRecord
  2
SXFMARKER_バツ
340
0
 70
     0
280
     1
281
     0
  0
BLOCK_RECORD
  5
2F
330
1
100
AcDbSymbolTableRecord
100
AcDbBlockTableRecord
  2
PAO_PROTMARK_0
340
0
 70
     0
280
     1
281
     0
  0
BLOCK_RECORD
  5
30
330
1
100
AcDbSymbolTableRecord
100
AcDbBlockTableRecord
  2
PAO_PROTMARK_1
340
0
 70
     0
280
     1
281
     0
  0
BLOCK_RECORD
  5
31
330
1
100
AcDbSymbolTableRecord
100
AcDbBlockTableRecord
  2
PAO_PROTMARK_2
340
0
 70
     0
280
     1
281
     0
  0
BLOCK_RECORD
  5
32
330
1
100
AcDbSymbolTableRecord
100
AcDbBlockTableRecord
  2
PAO_PROTMARK_3
340
0
 70
     0
280
     1
281
     0
  0
BLOCK_RECORD
  5
33
330
1
100
AcDbSymbolTableRecord
100
AcDbBlockTableRecord
  2
PAO_PROTMARK_4
340
0
 70
     0
280
     1
281
     0
  0
BLOCK_RECORD
  5
34
330
1
100
AcDbSymbolTableRecord
100
AcDbBlockTableRecord
  2
PAO_PROTMARK_5
340
0
 70
     0
280
     1
281
     0
  0
BLOCK_RECORD
  5
35
330
1
100
AcDbSymbolTableRecord
100
AcDbBlockTableRecord
  2
PAO_PROTMARK_6
340
0
 70
     0
280
     1
281
     0
  0
BLOCK_RECORD
  5
36
330
1
100
AcDbSymbolTableRecord
100
AcDbBlockTableRecord
  2
PAO_PROTMARK_7
340
0
 70
     0
280
     1
281
     0
  0
BLOCK_RECORD
  5
37
330
1
100
AcDbSymbolTableRecord
100
AcDbBlockTableRecord
  2
PAO_PROTMARK_8
340
0
 70
     0
280
     1
281
     0
  0
BLOCK_RECORD
  5
38
330
1
100
AcDbSymbolTableRecord
100
AcDbBlockTableRecord
  2
PAO_PROTMARK_9
340
0
 70
     0
280
     1
281
     0
  0
BLOCK_RECORD
  5
39
330
1
100
AcDbSymbolTableRecord
100
AcDbBlockTableRecord
  2
PAO_PROTMARK_10
340
0
 70
     0
280
     1
281
     0
  0
BLOCK_RECORD
  5
3A
330
1
100
AcDbSymbolTableRecord
100
AcDbBlockTableRecord
  2
PAO_PROTMARK_11
340
0
 70
     0
280
     1
281
     0
  0
BLOCK_RECORD
  5
3B
330
1
100
AcDbSymbolTableRecord
100
AcDbBlockTableRecord
  2
PAO_PROTMARK_12
340
0
 70
     0
280
     1
281
     0
  0
BLOCK_RECORD
  5
3C
330
1
100
AcDbSymbolTableRecord
100
AcDbBlockTableRecord
  2
PAO_PROTMARK_13
340
0
 70
     0
280
     1
281
     0
  0
BLOCK_RECORD
  5
3D
330
1
100
AcDbSymbolTableRecord
100
AcDbBlockTableRecord
  2
PAO_PROTMARK_14
340
0
 70
     0
280
     1
281
     0
  0
BLOCK_RECORD
  5
150
330
1
100
AcDbSymbolTableRecord
100
AcDbBlockTableRecord
  2
G$C2518AFBD
340
0
 70
     0
280
     1
281
     0
  0
BLOCK_RECORD
  5
1CD
330
1
100
AcDbSymbolTableRecord
100
AcDbBlockTableRecord
  2
G$C42083944
340
0
 70
     0
280
     1
281
     0
  0
BLOCK_RECORD
  5
376
330
1
100
AcDbSymbolTableRecord
100
AcDbBlockTableRecord
  2
G$CC7DCDFBB
340
0
 70
     0
280
     1
281
     0
  0
BLOCK_RECORD
  5
518
330
1
100
AcDbSymbolTableRecord
100
AcDbBlockTableRecord
  2
G$C7BD3397F
340
0
 70
     0
280
     1
281
     0
  0
BLOCK_RECORD
  5
666
330
1
100
AcDbSymbolTableRecord
100
AcDbBlockTableRecord
  2
G$CFD037729
340
0
 70
     0
280
     1
281
     0
  0
ENDTAB
  0
ENDSEC
  0
SECTION
  2
BLOCKS
  0
BLOCK
  5
3E
330
26
100
AcDbEntity
  8
0
  6
Continuous
100
AcDbBlockBegin
  2
*MODEL_SPACE
 70
     0
 10
0.0
 20
0.0
 30
0.0
  3
*MODEL_SPACE
  1

  0
ENDBLK
  5
3F
330
26
100
AcDbEntity
  8
0
  6
Continuous
100
AcDbBlockEnd
  0
BLOCK
  5
40
330
27
100
AcDbEntity
 67
     1
  8
0
  6
Continuous
100
AcDbBlockBegin
  2
*PAPER_SPACE
 70
     0
 10
0.0
 20
0.0
 30
0.0
  3
*PAPER_SPACE
  1

  0
ENDBLK
  5
41
330
27
100
AcDbEntity
 67
     1
  8
0
  6
Continuous
100
AcDbBlockEnd
  0
BLOCK
  5
42
330
28
100
AcDbEntity
  8
0
100
AcDbBlockBegin
  2
SXFMARKER_星
 70
     0
 10
0.0
 20
0.0
 30
0.0
  3
SXFMARKER_星
  1

  0
LINE
  5
43
330
28
100
AcDbEntity
  8
0
  6
Continuous
 62
     0
370
    13
100
AcDbLine
 10
0.0
 20
-50.0
 30
0.0
 11
0.0
 21
50.0
 31
0.0
  0
LINE
  5
44
330
28
100
AcDbEntity
  8
0
  6
Continuous
 62
     0
370
    13
100
AcDbLine
 10
-43.3012702
 20
-25.0
 30
0.0
 11
43.3012702
 21
25.0
 31
0.0
  0
LINE
  5
45
330
28
100
AcDbEntity
  8
0
  6
Continuous
 62
     0
370
    13
100
AcDbLine
 10
-43.3012702
 20
25.0
 30
0.0
 11
43.3012702
 21
-25.0
 31
0.0
  0
ENDBLK
  5
46
330
28
100
AcDbEntity
  8
0
100
AcDbBlockEnd
  0
BLOCK
  5
47
330
29
100
AcDbEntity
  8
0
100
AcDbBlockBegin
  2
SXFMARKER_円
 70
     0
 10
0.0
 20
0.0
 30
0.0
  3
SXFMARKER_円
  1

  0
POINT
  5
48
330
29
100
AcDbEntity
  8
0
 62
     0
100
AcDbPoint
 10
0.0
 20
0.0
 30
0.0
  0
CIRCLE
  5
49
330
29
100
AcDbEntity
  8
0
  6
Continuous
 62
     0
370
    13
100
AcDbCircle
 10
0.0
 20
0.0
 30
0.0
 40
50.0
  0
ENDBLK
  5
4A
330
29
100
AcDbEntity
  8
0
100
AcDbBlockEnd
  0
BLOCK
  5
4B
330
2A
100
AcDbEntity
  8
0
100
AcDbBlockBegin
  2
SXFMARKER_実点
 70
     0
 10
0.0
 20
0.0
 30
0.0
  3
SXFMARKER_実点
  1

  0
POINT
  5
4C
330
2A
100
AcDbEntity
  8
0
 62
     0
100
AcDbPoint
 10
0.0
 20
0.0
 30
0.0
  0
HATCH
  5
4D
330
2A
100
AcDbEntity
  8
0
  6
Continuous
 62
     0
100
AcDbHatch
 10
0.0
 20
0.0
 30
0.0
210
0.0
220
0.0
230
1.0
  2
SOLID
 70
     1
 71
     0
 91
        1
 92
        1
 93
        1
 72
     2
 10
0.0
 20
0.0
 40
50.0
 50
0.0
 51
360.0
 73
     1
 97
        0
 75
     0
 76
     1
 98
        1
 10
0.0
 20
0.0
450
        0
451
        0
460
0.0
461
0.0
452
        1
462
0.0
453
        2
463
0.0
 63
     5
421
      255
463
1.0
 63
   254
421
 13750783
470

  0
ENDBLK
  5
4E
330
2A
100
AcDbEntity
  8
0
100
AcDbBlockEnd
  0
BLOCK
  5
4F
330
2B
100
AcDbEntity
  8
0
100
AcDbBlockBegin
  2
SXFMARKER_プラス
 70
     0
 10
0.0
 20
0.0
 30
0.0
  3
SXFMARKER_プラス
  1

  0
LINE
  5
50
330
2B
100
AcDbEntity
  8
0
  6
Continuous
 62
     0
370
    13
100
AcDbLine
 10
-50.0
 20
0.0
 30
0.0
 11
50.0
 21
0.0
 31
0.0
  0
LINE
  5
51
330
2B
100
AcDbEntity
  8
0
  6
Continuous
 62
     0
370
    13
100
AcDbLine
 10
0.0
 20
50.0
 30
0.0
 11
0.0
 21
-50.0
 31
0.0
  0
ENDBLK
  5
52
330
2B
100
AcDbEntity
  8
0
100
AcDbBlockEnd
  0
BLOCK
  5
53
330
2C
100
AcDbEntity
  8
0
100
AcDbBlockBegin
  2
SXFMARKER_四角
 70
     0
 10
0.0
 20
0.0
 30
0.0
  3
SXFMARKER_四角
  1

  0
POINT
  5
54
330
2C
100
AcDbEntity
  8
0
 62
     0
100
AcDbPoint
 10
0.0
 20
0.0
 30
0.0
  0
LWPOLYLINE
  5
55
330
2C
100
AcDbEntity
  8
0
  6
Continuous
 62
     0
370
    13
100
AcDbPolyline
 90
        4
 70
   129
 43
0.0
 10
-50.0
 20
50.0
 10
50.0
 20
50.0
 10
50.0
 20
-50.0
 10
-50.0
 20
-50.0
  0
ENDBLK
  5
56
330
2C
100
AcDbEntity
  8
0
100
AcDbBlockEnd
  0
BLOCK
  5
57
330
2D
100
AcDbEntity
  8
0
100
AcDbBlockBegin
  2
SXFMARKER_三角
 70
     0
 10
0.0
 20
0.0
 30
0.0
  3
SXFMARKER_三角
  1

  0
POINT
  5
58
330
2D
100
AcDbEntity
  8
0
 62
     0
100
AcDbPoint
 10
0.0
 20
0.0
 30
0.0
  0
LWPOLYLINE
  5
59
330
2D
100
AcDbEntity
  8
0
  6
Continuous
 62
     0
370
    13
100
AcDbPolyline
 90
        3
 70
   129
 43
0.0
 10
0.0
 20
57.7350269
 10
50.0
 20
-28.8675135
 10
-50.0
 20
-28.8675135
  0
ENDBLK
  5
5A
330
2D
100
AcDbEntity
  8
0
100
AcDbBlockEnd
  0
BLOCK
  5
5B
330
2E
100
AcDbEntity
  8
0
100
AcDbBlockBegin
  2
SXFMARKER_バツ
 70
     0
 10
0.0
 20
0.0
 30
0.0
  3
SXFMARKER_バツ
  1

  0
LINE
  5
5C
330
2E
100
AcDbEntity
  8
0
  6
Continuous
 62
     0
370
    13
100
AcDbLine
 10
-50.0
 20
50.0
 30
0.0
 11
50.0
 21
-50.0
 31
0.0
  0
LINE
  5
5D
330
2E
100
AcDbEntity
  8
0
  6
Continuous
 62
     0
370
    13
100
AcDbLine
 10
-50.0
 20
-50.0
 30
0.0
 11
50.0
 21
50.0
 31
0.0
  0
ENDBLK
  5
5E
330
2E
100
AcDbEntity
  8
0
100
AcDbBlockEnd
  0
BLOCK
  5
5F
330
2F
100
AcDbEntity
  8
0
100
AcDbBlockBegin
  2
PAO_PROTMARK_0
 70
     0
 10
0.0
 20
0.0
 30
0.0
  3
PAO_PROTMARK_0
  1

  0
POINT
  5
60
330
2F
100
AcDbEntity
  8
0
 62
     0
100
AcDbPoint
 10
0.0
 20
0.0
 30
0.0
  0
HATCH
  5
61
330
2F
100
AcDbEntity
  8
0
  6
Continuous
 62
     0
100
AcDbHatch
 10
0.0
 20
0.0
 30
0.0
210
0.0
220
0.0
230
1.0
  2
SOLID
 70
     1
 71
     0
 91
        1
 92
        1
 93
        1
 72
     2
 10
0.0
 20
0.0
 40
7.0
 50
0.0
 51
360.0
 73
     1
 97
        0
 75
     0
 76
     1
 98
        1
 10
0.0
 20
0.0
450
        0
451
        0
460
0.0
461
0.0
452
        1
462
0.0
453
        2
463
0.0
 63
     5
421
      255
463
1.0
 63
   254
421
 13750783
470

  0
ENDBLK
  5
62
330
2F
100
AcDbEntity
  8
0
100
AcDbBlockEnd
  0
BLOCK
  5
63
330
30
100
AcDbEntity
  8
0
100
AcDbBlockBegin
  2
PAO_PROTMARK_1
 70
     0
 10
0.0
 20
0.0
 30
0.0
  3
PAO_PROTMARK_1
  1

  0
LINE
  5
64
330
30
100
AcDbEntity
  8
0
  6
Continuous
 62
     0
370
    13
100
AcDbLine
 10
-50.0
 20
0.0
 30
0.0
 11
50.0
 21
0.0
 31
0.0
  0
LINE
  5
65
330
30
100
AcDbEntity
  8
0
  6
Continuous
 62
     0
370
    13
100
AcDbLine
 10
0.0
 20
50.0
 30
0.0
 11
0.0
 21
-50.0
 31
0.0
  0
ENDBLK
  5
66
330
30
100
AcDbEntity
  8
0
100
AcDbBlockEnd
  0
BLOCK
  5
67
330
31
100
AcDbEntity
  8
0
100
AcDbBlockBegin
  2
PAO_PROTMARK_2
 70
     0
 10
0.0
 20
0.0
 30
0.0
  3
PAO_PROTMARK_2
  1

  0
LINE
  5
68
330
31
100
AcDbEntity
  8
0
  6
Continuous
 62
     0
370
    13
100
AcDbLine
 10
-35.35534
 20
35.35534
 30
0.0
 11
35.35534
 21
-35.35534
 31
0.0
  0
LINE
  5
69
330
31
100
AcDbEntity
  8
0
  6
Continuous
 62
     0
370
    13
100
AcDbLine
 10
-35.35534
 20
-35.35534
 30
0.0
 11
35.35534
 21
35.35534
 31
0.0
  0
ENDBLK
  5
6A
330
31
100
AcDbEntity
  8
0
100
AcDbBlockEnd
  0
BLOCK
  5
6B
330
32
100
AcDbEntity
  8
0
100
AcDbBlockBegin
  2
PAO_PROTMARK_3
 70
     0
 10
0.0
 20
0.0
 30
0.0
  3
PAO_PROTMARK_3
  1

  0
POINT
  5
6C
330
32
100
AcDbEntity
  8
0
 62
     0
100
AcDbPoint
 10
0.0
 20
0.0
 30
0.0
  0
CIRCLE
  5
6D
330
32
100
AcDbEntity
  8
0
  6
Continuous
 62
     0
370
    13
100
AcDbCircle
 10
0.0
 20
0.0
 30
0.0
 40
50.0
  0
ENDBLK
  5
6E
330
32
100
AcDbEntity
  8
0
100
AcDbBlockEnd
  0
BLOCK
  5
6F
330
33
100
AcDbEntity
  8
0
100
AcDbBlockBegin
  2
PAO_PROTMARK_4
 70
     0
 10
0.0
 20
0.0
 30
0.0
  3
PAO_PROTMARK_4
  1

  0
POINT
  5
70
330
33
100
AcDbEntity
  8
0
 62
     0
100
AcDbPoint
 10
0.0
 20
0.0
 30
0.0
  0
CIRCLE
  5
71
330
33
100
AcDbEntity
  8
0
  6
Continuous
 62
     0
370
    13
100
AcDbCircle
 10
0.0
 20
0.0
 30
0.0
 40
50.0
  0
LINE
  5
72
330
33
100
AcDbEntity
  8
0
  6
Continuous
 62
     0
370
    13
100
AcDbLine
 10
-50.0
 20
0.0
 30
0.0
 11
50.0
 21
0.0
 31
0.0
  0
ENDBLK
  5
73
330
33
100
AcDbEntity
  8
0
100
AcDbBlockEnd
  0
BLOCK
  5
74
330
34
100
AcDbEntity
  8
0
100
AcDbBlockBegin
  2
PAO_PROTMARK_5
 70
     0
 10
0.0
 20
0.0
 30
0.0
  3
PAO_PROTMARK_5
  1

  0
POINT
  5
75
330
34
100
AcDbEntity
  8
0
 62
     0
100
AcDbPoint
 10
0.0
 20
0.0
 30
0.0
  0
CIRCLE
  5
76
330
34
100
AcDbEntity
  8
0
  6
Continuous
 62
     0
370
    13
100
AcDbCircle
 10
0.0
 20
0.0
 30
0.0
 40
50.0
  0
LINE
  5
77
330
34
100
AcDbEntity
  8
0
  6
Continuous
 62
     0
370
    13
100
AcDbLine
 10
0.0
 20
50.0
 30
0.0
 11
0.0
 21
-50.0
 31
0.0
  0
ENDBLK
  5
78
330
34
100
AcDbEntity
  8
0
100
AcDbBlockEnd
  0
BLOCK
  5
79
330
35
100
AcDbEntity
  8
0
100
AcDbBlockBegin
  2
PAO_PROTMARK_6
 70
     0
 10
0.0
 20
0.0
 30
0.0
  3
PAO_PROTMARK_6
  1

  0
POINT
  5
7A
330
35
100
AcDbEntity
  8
0
 62
     0
100
AcDbPoint
 10
0.0
 20
0.0
 30
0.0
  0
CIRCLE
  5
7B
330
35
100
AcDbEntity
  8
0
  6
Continuous
 62
     0
370
    13
100
AcDbCircle
 10
0.0
 20
0.0
 30
0.0
 40
50.0
  0
LINE
  5
7C
330
35
100
AcDbEntity
  8
0
  6
Continuous
 62
     0
370
    13
100
AcDbLine
 10
-50.0
 20
0.0
 30
0.0
 11
50.0
 21
0.0
 31
0.0
  0
LINE
  5
7D
330
35
100
AcDbEntity
  8
0
  6
Continuous
 62
     0
370
    13
100
AcDbLine
 10
0.0
 20
50.0
 30
0.0
 11
0.0
 21
-50.0
 31
0.0
  0
ENDBLK
  5
7E
330
35
100
AcDbEntity
  8
0
100
AcDbBlockEnd
  0
BLOCK
  5
7F
330
36
100
AcDbEntity
  8
0
100
AcDbBlockBegin
  2
PAO_PROTMARK_7
 70
     0
 10
0.0
 20
0.0
 30
0.0
  3
PAO_PROTMARK_7
  1

  0
POINT
  5
80
330
36
100
AcDbEntity
  8
0
 62
     0
100
AcDbPoint
 10
0.0
 20
0.0
 30
0.0
  0
CIRCLE
  5
81
330
36
100
AcDbEntity
  8
0
  6
Continuous
 62
     0
370
    13
100
AcDbCircle
 10
0.0
 20
0.0
 30
0.0
 40
50.0
  0
POINT
  5
82
330
36
100
AcDbEntity
  8
0
 62
     0
100
AcDbPoint
 10
0.0
 20
0.0
 30
0.0
  0
CIRCLE
  5
83
330
36
100
AcDbEntity
  8
0
  6
Continuous
 62
     0
370
    13
100
AcDbCircle
 10
0.0
 20
0.0
 30
0.0
 40
30.0
  0
ENDBLK
  5
84
330
36
100
AcDbEntity
  8
0
100
AcDbBlockEnd
  0
BLOCK
  5
85
330
37
100
AcDbEntity
  8
0
100
AcDbBlockBegin
  2
PAO_PROTMARK_8
 70
     0
 10
0.0
 20
0.0
 30
0.0
  3
PAO_PROTMARK_8
  1

  0
POINT
  5
86
330
37
100
AcDbEntity
  8
0
 62
     0
100
AcDbPoint
 10
0.0
 20
0.0
 30
0.0
  0
LWPOLYLINE
  5
87
330
37
100
AcDbEntity
  8
0
  6
Continuous
 62
     0
370
    13
100
AcDbPolyline
 90
        3
 70
   129
 43
0.0
 10
0.0
 20
57.7350269
 10
50.0
 20
-28.8675135
 10
-50.0
 20
-28.8675135
  0
ENDBLK
  5
88
330
37
100
AcDbEntity
  8
0
100
AcDbBlockEnd
  0
BLOCK
  5
89
330
38
100
AcDbEntity
  8
0
100
AcDbBlockBegin
  2
PAO_PROTMARK_9
 70
     0
 10
0.0
 20
0.0
 30
0.0
  3
PAO_PROTMARK_9
  1

  0
POINT
  5
8A
330
38
100
AcDbEntity
  8
0
 62
     0
100
AcDbPoint
 10
0.0
 20
0.0
 30
0.0
  0
LWPOLYLINE
  5
8B
330
38
100
AcDbEntity
  8
0
  6
Continuous
 62
     0
370
    13
100
AcDbPolyline
 90
        3
 70
   129
 43
0.0
 10
0.0
 20
-57.7350269
 10
-50.0
 20
28.8675135
 10
50.0
 20
28.8675135
  0
ENDBLK
  5
8C
330
38
100
AcDbEntity
  8
0
100
AcDbBlockEnd
  0
BLOCK
  5
8D
330
39
100
AcDbEntity
  8
0
100
AcDbBlockBegin
  2
PAO_PROTMARK_10
 70
     0
 10
0.0
 20
0.0
 30
0.0
  3
PAO_PROTMARK_10
  1

  0
POINT
  5
8E
330
39
100
AcDbEntity
  8
0
 62
     0
100
AcDbPoint
 10
0.0
 20
0.0
 30
0.0
  0
LWPOLYLINE
  5
8F
330
39
100
AcDbEntity
  8
0
  6
Continuous
 62
     0
370
    13
100
AcDbPolyline
 90
        4
 70
   129
 43
0.0
 10
-50.0
 20
50.0
 10
50.0
 20
50.0
 10
50.0
 20
-50.0
 10
-50.0
 20
-50.0
  0
ENDBLK
  5
90
330
39
100
AcDbEntity
  8
0
100
AcDbBlockEnd
  0
BLOCK
  5
91
330
3A
100
AcDbEntity
  8
0
100
AcDbBlockBegin
  2
PAO_PROTMARK_11
 70
     0
 10
0.0
 20
0.0
 30
0.0
  3
PAO_PROTMARK_11
  1

  0
POINT
  5
92
330
3A
100
AcDbEntity
  8
0
 62
     0
100
AcDbPoint
 10
0.0
 20
0.0
 30
0.0
  0
LWPOLYLINE
  5
93
330
3A
100
AcDbEntity
  8
0
  6
Continuous
 62
     0
370
    13
100
AcDbPolyline
 90
        4
 70
   129
 43
0.0
 10
-50.0
 20
50.0
 10
50.0
 20
50.0
 10
50.0
 20
-50.0
 10
-50.0
 20
-50.0
  0
LINE
  5
94
330
3A
100
AcDbEntity
  8
0
  6
Continuous
 62
     0
370
    13
100
AcDbLine
 10
-50.0
 20
0.0
 30
0.0
 11
50.0
 21
0.0
 31
0.0
  0
LINE
  5
95
330
3A
100
AcDbEntity
  8
0
  6
Continuous
 62
     0
370
    13
100
AcDbLine
 10
0.0
 20
50.0
 30
0.0
 11
0.0
 21
-50.0
 31
0.0
  0
ENDBLK
  5
96
330
3A
100
AcDbEntity
  8
0
100
AcDbBlockEnd
  0
BLOCK
  5
97
330
3B
100
AcDbEntity
  8
0
100
AcDbBlockBegin
  2
PAO_PROTMARK_12
 70
     0
 10
0.0
 20
0.0
 30
0.0
  3
PAO_PROTMARK_12
  1

  0
POINT
  5
98
330
3B
100
AcDbEntity
  8
0
 62
     0
100
AcDbPoint
 10
0.0
 20
0.0
 30
0.0
  0
LWPOLYLINE
  5
99
330
3B
100
AcDbEntity
  8
0
  6
Continuous
 62
     0
370
    13
100
AcDbPolyline
 90
        4
 70
   129
 43
0.0
 10
-50.0
 20
50.0
 10
50.0
 20
50.0
 10
50.0
 20
-50.0
 10
-50.0
 20
-50.0
  0
LINE
  5
9A
330
3B
100
AcDbEntity
  8
0
  6
Continuous
 62
     0
370
    13
100
AcDbLine
 10
-50.0
 20
50.0
 30
0.0
 11
50.0
 21
-50.0
 31
0.0
  0
LINE
  5
9B
330
3B
100
AcDbEntity
  8
0
  6
Continuous
 62
     0
370
    13
100
AcDbLine
 10
-50.0
 20
-50.0
 30
0.0
 11
50.0
 21
50.0
 31
0.0
  0
ENDBLK
  5
9C
330
3B
100
AcDbEntity
  8
0
100
AcDbBlockEnd
  0
BLOCK
  5
9D
330
3C
100
AcDbEntity
  8
0
100
AcDbBlockBegin
  2
PAO_PROTMARK_13
 70
     0
 10
0.0
 20
0.0
 30
0.0
  3
PAO_PROTMARK_13
  1

  0
POINT
  5
9E
330
3C
100
AcDbEntity
  8
0
 62
     0
100
AcDbPoint
 10
0.0
 20
0.0
 30
0.0
  0
CIRCLE
  5
9F
330
3C
100
AcDbEntity
  8
0
  6
Continuous
 62
     0
370
    13
100
AcDbCircle
 10
0.0
 20
0.0
 30
0.0
 40
50.0
  0
LINE
  5
A0
330
3C
100
AcDbEntity
  8
0
  6
Continuous
 62
     0
370
    13
100
AcDbLine
 10
-35.35534
 20
35.35534
 30
0.0
 11
35.35534
 21
-35.35534
 31
0.0
  0
LINE
  5
A1
330
3C
100
AcDbEntity
  8
0
  6
Continuous
 62
     0
370
    13
100
AcDbLine
 10
-35.35534
 20
-35.35534
 30
0.0
 11
35.35534
 21
35.35534
 31
0.0
  0
ENDBLK
  5
A2
330
3C
100
AcDbEntity
  8
0
100
AcDbBlockEnd
  0
BLOCK
  5
A3
330
3D
100
AcDbEntity
  8
0
100
AcDbBlockBegin
  2
PAO_PROTMARK_14
 70
     0
 10
0.0
 20
0.0
 30
0.0
  3
PAO_PROTMARK_14
  1

  0
POINT
  5
A4
330
3D
100
AcDbEntity
  8
0
 62
     0
100
AcDbPoint
 10
0.0
 20
0.0
 30
0.0
  0
LWPOLYLINE
  5
A5
330
3D
100
AcDbEntity
  8
0
  6
Continuous
 62
     0
370
    13
100
AcDbPolyline
 90
        4
 70
   129
 43
0.0
 10
-50.0
 20
50.0
 10
50.0
 20
50.0
 10
50.0
 20
-50.0
 10
-50.0
 20
-50.0
  0
POINT
  5
A6
330
3D
100
AcDbEntity
  8
0
 62
     0
100
AcDbPoint
 10
0.0
 20
0.0
 30
0.0
  0
LWPOLYLINE
  5
A7
330
3D
100
AcDbEntity
  8
0
  6
Continuous
 62
     0
370
    13
100
AcDbPolyline
 90
        4
 70
   129
 43
0.0
 10
0.0
 20
50.0
 10
50.0
 20
0.0
 10
0.0
 20
-50.0
 10
-50.0
 20
0.0
  0
ENDBLK
  5
A8
330
3D
100
AcDbEntity
  8
0
100
AcDbBlockEnd
  0
BLOCK
  5
18F
330
150
100
AcDbEntity
  8
0
100
AcDbBlockBegin
  2
G$C2518AFBD
 70
     0
 10
0.0
 20
0.0
 30
0.0
  3
G$C2518AFBD
  1
Acad:XRef
  0
LINE
  5
17A
330
150
100
AcDbEntity
  8
G_0-L_1
  6
Continuous
 62
     7
370
    18
100
AcDbLine
 10
2728.874699862132
 20
2199.784679865988
 30
0.0
 11
1727.434267462132
 21
773.6827982659888
 31
0.0
  0
LINE
  5
17B
330
150
100
AcDbEntity
  8
G_0-L_1
  6
Continuous
 62
     7
370
    18
100
AcDbLine
 10
2728.874699862132
 20
2199.784679865988
 30
0.0
 11
2187.924908762132
 21
1845.655381765988
 31
0.0
  0
LINE
  5
17C
330
150
100
AcDbEntity
  8
G_0-L_1
  6
Continuous
 62
     7
370
    18
100
AcDbLine
 10
2580.082232962132
 20
1570.273794165991
 30
0.0
 11
2187.924908762132
 21
1845.655381765988
 31
0.0
  0
LINE
  5
17D
330
150
100
AcDbEntity
  8
G_0-L_1
  6
Continuous
 62
     7
370
    18
100
AcDbLine
 10
2284.376181362132
 20
1044.767086965989
 30
0.0
 11
1793.349829562132
 21
1389.57670286599
 31
0.0
  0
TEXT
  5
17E
330
150
100
AcDbEntity
  8
G_0-L_1
 62
     7
100
AcDbText
 10
1012.516269862132
 20
28.69972666598915
 30
0.0
 40
269.2307692
  1
（１００）
 41
0.857142857142857
  7
ゴシック
100
AcDbText
  0
LINE
  5
17F
330
150
100
AcDbEntity
  8
G_0-L_0
  6
Continuous
 62
     7
370
    18
100
AcDbLine
 10
29440.32107726213
 20
3112.34513476599
 30
0.0
 11
29440.32107726213
 21
4312.34513476599
 31
0.0
  0
LINE
  5
180
330
150
100
AcDbEntity
  8
G_0-L_0
  6
Continuous
 62
     7
370
    18
100
AcDbLine
 10
6841.505257162133
 20
4312.34513476599
 30
0.0
 11
6841.505257162133
 21
3112.34513476599
 31
0.0
  0
LINE
  5
181
330
150
100
AcDbEntity
  8
G_0-L_0
  6
Continuous
 62
     7
370
    18
100
AcDbLine
 10
1841.505257162132
 20
3112.34513476599
 30
0.0
 11
1841.505257162132
 21
4312.34513476599
 31
0.0
  0
LINE
  5
182
330
150
100
AcDbEntity
  8
G_0-L_0
  6
Continuous
 62
     7
370
    18
100
AcDbLine
 10
9341.505257162133
 20
4312.34513476599
 30
0.0
 11
9341.505257162133
 21
3112.34513476599
 31
0.0
  0
LINE
  5
183
330
150
100
AcDbEntity
  8
G_0-L_0
  6
Continuous
 62
     7
370
    18
100
AcDbLine
 10
26940.32107726213
 20
3112.34513476599
 30
0.0
 11
26940.32107726213
 21
4312.34513476599
 31
0.0
  0
TEXT
  5
184
330
150
100
AcDbEntity
  8
G_0-L_0
 62
     7
100
AcDbText
 10
7115.254934562132
 20
3572.726202065991
 30
0.0
 40
346.1538462
  1
設 置 場 所
 41
0.8
  7
ゴシック
100
AcDbText
  0
TEXT
  5
185
330
150
100
AcDbEntity
  8
G_0-L_0
 62
     7
100
AcDbText
 10
-50.60523233786785
 20
3532.862366565991
 30
0.0
 40
346.1538462
  1
申込年月日
 41
0.8
  7
ゴシック
100
AcDbText
  0
LINE
  5
186
330
150
100
AcDbEntity
  8
G_0-L_0
  6
Continuous
 62
     7
370
    18
100
AcDbLine
 10
24440.32107726213
 20
3112.34513476599
 30
0.0
 11
24440.32107726213
 21
4312.34513476599
 31
0.0
  0
TEXT
  5
187
330
150
100
AcDbEntity
  8
G_0-L_0
 62
     7
100
AcDbText
 10
24705.40099616213
 20
3544.768577565988
 30
0.0
 40
346.1538462
  1
工 事 種 別
 41
0.8
  7
ゴシック
100
AcDbText
  0
LINE
  5
188
330
150
100
AcDbEntity
  8
G_0-L_0
  6
Continuous
 62
     7
370
    18
100
AcDbLine
 10
29440.32107726213
 20
3112.34513476599
 30
0.0
 11
29440.32107726213
 21
4312.34513476599
 31
0.0
  0
LINE
  5
189
330
150
100
AcDbEntity
  8
G_0-L_0
  6
Continuous
 62
     7
370
    18
100
AcDbLine
 10
31940.32107726213
 20
3112.34513476599
 30
0.0
 11
31940.32107726213
 21
4312.34513476599
 31
0.0
  0
TEXT
  5
18A
330
150
100
AcDbEntity
  8
G_0-L_0
 62
     7
100
AcDbText
 10
29705.40099616213
 20
3544.768577565988
 30
0.0
 40
346.1538462
  1
工 事 番 号
 41
0.8
  7
ゴシック
100
AcDbText
  0
LINE
  5
18B
330
150
100
AcDbEntity
  8
G_0-L_0
  6
Continuous
 62
     7
370
    18
100
AcDbLine
 10
15341.50525716213
 20
4312.34513476599
 30
0.0
 11
15341.50525716213
 21
3112.34513476599
 31
0.0
  0
LINE
  5
18C
330
150
100
AcDbEntity
  8
G_0-L_0
  6
Continuous
 62
     7
370
    18
100
AcDbLine
 10
17841.50525716213
 20
4312.34513476599
 30
0.0
 11
17841.50525716213
 21
3112.34513476599
 31
0.0
  0
TEXT
  5
18D
330
150
100
AcDbEntity
  8
G_0-L_0
 62
     7
100
AcDbText
 10
15554.98787686213
 20
3529.989374865985
 30
0.0
 40
346.1538462
  1
工事事業者名
 41
0.8
  7
ゴシック
100
AcDbText
  0
LINE
  5
18E
330
150
100
AcDbEntity
  8
G_0-L_0
  6
Continuous
 62
     7
370
    18
100
AcDbLine
 10
24440.32107726213
 20
3112.34513476599
 30
0.0
 11
24440.32107726213
 21
4312.34513476599
 31
0.0
  0
ENDBLK
  5
190
330
150
100
AcDbEntity
  8
0
100
AcDbBlockEnd
  0
BLOCK
  5
1FE
330
1CD
100
AcDbEntity
  8
0
100
AcDbBlockBegin
  2
G$C42083944
 70
     0
 10
0.0
 20
0.0
 30
0.0
  3
G$C42083944
  1
Acad:XRef
  0
LINE
  5
1F4
330
1CD
100
AcDbEntity
  8
G_0-L_2
  6
Continuous
 62
     7
370
    13
100
AcDbLine
 10
3266.6686143
 20
2400.000190000001
 30
0.0
 11
3266.6686143
 21
0.0000000000002274
 31
0.0
  0
LINE
  5
1F5
330
1CD
100
AcDbEntity
  8
G_0-L_2
  6
Continuous
 62
     7
370
    13
100
AcDbLine
 10
0.0
 20
2400.000190000001
 30
0.0
 11
0.0
 21
0.0000000000002274
 31
0.0
  0
LINE
  5
1F6
330
1CD
100
AcDbEntity
  8
G_0-L_2
  6
Continuous
 62
     7
370
    13
100
AcDbLine
 10
0.0
 20
2400.000190000001
 30
0.0
 11
3266.6686143
 21
2400.000190000001
 31
0.0
  0
LINE
  5
1F7
330
1CD
100
AcDbEntity
  8
G_0-L_2
  6
Continuous
 62
     7
370
    13
100
AcDbLine
 10
0.0
 20
0.0000000000002274
 30
0.0
 11
3266.6686143
 21
0.0000000000002274
 31
0.0
  0
LINE
  5
1F8
330
1CD
100
AcDbEntity
  8
G_0-L_2
  6
Continuous
 62
     7
370
    13
100
AcDbLine
 10
0.0
 20
1938.4057166
 30
0.0
 11
3266.6686143
 21
1938.4057166
 31
0.0
  0
TEXT
  5
1F9
330
1CD
100
AcDbEntity
  8
G_0-L_2
 62
     7
100
AcDbText
 10
234.0167823000002
 20
642.4967563000005
 30
0.0
 40
269.2307692
  1
Ａ：Ｄ＝
 41
0.857142857142857
  7
ゴシック
100
AcDbText
  0
TEXT
  5
1FA
330
1CD
100
AcDbEntity
  8
G_0-L_2
 62
     7
100
AcDbText
 10
234.0167823000002
 20
1109.728934
 30
0.0
 40
269.2307692
  1
Ａ：Ｃ＝
 41
0.857142857142857
  7
ゴシック
100
AcDbText
  0
TEXT
  5
1FB
330
1CD
100
AcDbEntity
  8
G_0-L_2
 62
     7
100
AcDbText
 10
379.5779523548408
 20
2065.4326664
 30
0.0
 40
269.2307692
  1
オフセット値
 41
0.857142857142857
  7
ゴシック
100
AcDbText
  0
TEXT
  5
1FC
330
1CD
100
AcDbEntity
  8
G_0-L_2
 62
     7
100
AcDbText
 10
534.0167513000001
 20
196.5013313000004
 30
0.0
 40
269.2307692
  1
Ｈ　＝
 41
0.857142857142857
  7
ゴシック
100
AcDbText
  0
TEXT
  5
1FD
330
1CD
100
AcDbEntity
  8
G_0-L_2
 62
     7
100
AcDbText
 10
234.0167823000002
 20
1534.4858567
 30
0.0
 40
269.2307692
  1
Ａ：Ｂ＝
 41
0.857142857142857
  7
ゴシック
100
AcDbText
  0
ENDBLK
  5
1FF
330
1CD
100
AcDbEntity
  8
0
100
AcDbBlockEnd
  0
BLOCK
  5
3A3
330
376
100
AcDbEntity
  8
0
100
AcDbBlockBegin
  2
G$CC7DCDFBB
 70
     0
 10
0.0
 20
0.0
 30
0.0
  3
G$CC7DCDFBB
  1
Acad:XRef
  0
LWPOLYLINE
  5
39B
330
376
100
AcDbEntity
  8
G_0-L_1
  6
Continuous
 62
     7
370
    13
100
AcDbPolyline
 90
        3
 70
   128
 43
0.0
 10
241.4814564999997
 20
2764.704951300002
 10
0.0
 20
2700.00019
 10
241.4814564999997
 20
2635.295428700001
  0
TEXT
  5
39C
330
376
100
AcDbEntity
  8
G_0-L_1
 62
     7
100
AcDbText
 10
1010.538643768021
 20
2792.914073598195
 30
0.0
 40
269.2307692
  1
３．７cm
 41
0.857142857142857
  7
ゴシック
100
AcDbText
  0
LINE
  5
39D
330
376
100
AcDbEntity
  8
G_0-L_1
  6
Continuous
 62
     7
370
    13
100
AcDbLine
 10
0.0
 20
2700.00019
 30
0.0
 11
3266.6686143
 21
2700.00019
 31
0.0
  0
LWPOLYLINE
  5
39E
330
376
100
AcDbEntity
  8
G_0-L_1
  6
Continuous
 62
     7
370
    13
100
AcDbPolyline
 90
        3
 70
   128
 43
0.0
 10
3025.187157699999
 20
2635.295428700001
 10
3266.6686143
 20
2700.00019
 10
3025.187157699999
 20
2764.704951300002
  0
LWPOLYLINE
  5
39F
330
376
100
AcDbEntity
  8
G_0-L_1
  6
Continuous
 62
     7
370
    13
100
AcDbPolyline
 90
        3
 70
   128
 43
0.0
 10
3631.373375600001
 20
2158.518733500001
 10
3566.6686143
 20
2400.000190000001
 10
3501.963853
 20
2158.518733500001
  0
TEXT
  5
3A0
330
376
100
AcDbEntity
  8
G_0-L_1
 62
     7
100
AcDbText
 10
3566.6686143
 20
1112.802113598879
 30
0.0
 40
269.2307692
  1
２．５cm
 41
0.857142857142857
  7
ゴシック
100
AcDbText
  0
LINE
  5
3A1
330
376
100
AcDbEntity
  8
G_0-L_1
  6
Continuous
 62
     7
370
    13
100
AcDbLine
 10
3566.6686143
 20
2400.000190000001
 30
0.0
 11
3566.6686143
 21
0.0
 31
0.0
  0
LWPOLYLINE
  5
3A2
330
376
100
AcDbEntity
  8
G_0-L_1
  6
Continuous
 62
     7
370
    13
100
AcDbPolyline
 90
        3
 70
   128
 43
0.0
 10
3501.963853
 20
241.4814566000009
 10
3566.6686143
 20
0.0
 10
3631.373375600001
 20
241.4814566000009
  0
ENDBLK
  5
3A4
330
376
100
AcDbEntity
  8
0
100
AcDbBlockEnd
  0
BLOCK
  5
53A
330
518
100
AcDbEntity
  8
0
100
AcDbBlockBegin
  2
G$C7BD3397F
 70
     0
 10
0.0
 20
0.0
 30
0.0
  3
G$C7BD3397F
  1
Acad:XRef
  0
TEXT
  5
539
330
518
100
AcDbEntity
  8
G_0-L_0
 62
     7
100
AcDbText
 10
-26.55212807851058
 20
40.41390082538055
 30
0.0
 40
346.1538462
  1
案 内 図 Ｈ〇〇年 〇〇 部 Ｐ.〇〇〇 〇－〇 申請地
 41
0.888888888888889
  7
ゴシック
100
AcDbText
  0
ENDBLK
  5
53B
330
518
100
AcDbEntity
  8
0
100
AcDbBlockEnd
  0
BLOCK
  5
694
330
666
100
AcDbEntity
  8
0
100
AcDbBlockBegin
  2
G$CFD037729
 70
     0
 10
0.0
 20
0.0
 30
0.0
  3
G$CFD037729
  1
Acad:XRef
  0
LINE
  5
68D
330
666
100
AcDbEntity
  8
G_0-L_0
  6
Continuous
 62
     7
370
    18
100
AcDbLine
 10
5916.959449400005
 20
999.0913391
 30
0.0
 11
897.4770275000046
 21
999.0913391
 31
0.0
  0
LINE
  5
68E
330
666
100
AcDbEntity
  8
G_0-L_0
  6
Continuous
 62
     7
370
    18
100
AcDbLine
 10
897.4770275000046
 20
0.0
 30
0.0
 11
897.4770275000046
 21
999.0913391
 31
0.0
  0
TEXT
  5
68F
330
666
100
AcDbEntity
  8
G_0-L_0
 62
     7
100
AcDbText
 10
2107.499000200005
 20
266.4162269
 30
0.0
 40
423.0769231
  1
竣　工　図
  7
ゴシック
100
AcDbText
  0
TEXT
  5
690
330
666
100
AcDbEntity
  8
G_0-L_0
 62
     7
100
AcDbText
 10
0.0
 20
1724.9782931
 30
0.0
 40
346.1538462
  1
※申請時には不要
 41
0.8
  7
ゴシック
100
AcDbText
  0
LINE
  5
691
330
666
100
AcDbEntity
  8
G_0-L_0
  6
Continuous
 62
     7
370
    13
100
AcDbLine
 10
0.0
 20
1655.7475239
 30
0.0
 11
2880.0
 21
1655.7475239
 31
0.0
  0
LWPOLYLINE
  5
692
330
666
100
AcDbEntity
  8
G_0-L_0
  6
Continuous
 62
     7
370
    18
100
AcDbPolyline
 90
        2
 70
   128
 43
0.0
 10
3065.678313900004
 20
1142.4015971
 10
2880.0
 20
1655.7475239
  0
LWPOLYLINE
  5
693
330
666
100
AcDbEntity
  8
G_0-L_0
  6
Continuous
 62
     7
370
    18
100
AcDbPolyline
 90
        3
 70
   128
 43
0.0
 10
2979.888288500006
 20
1265.4465952
 10
3065.678313900004
 20
1142.4015971
 10
3052.904471600006
 20
1291.8567039
  0
ENDBLK
  5
695
330
666
100
AcDbEntity
  8
0
100
AcDbBlockEnd
  0
ENDSEC
  0
SECTION
  2
ENTITIES
  0
LWPOLYLINE
  5
A9
330
26
100
AcDbEntity
  8
DefPoints
  6
DASHED
100
AcDbPolyline
 90
        4
 70
   129
 43
0.0
 10
0.0
 20
0.0
 10
0.0
 20
29700.0
 10
42000.0
 20
29700.0
 10
42000.0
 20
0.0
  0
LINE
  5
AA
330
26
100
AcDbEntity
  8
G_0-L_0
  6
Continuous
 62
     7
370
    18
100
AcDbLine
 10
41139.6913271
 20
28801.628484
 30
0.0
 11
1140.875507
 21
28801.628484
 31
0.0
  0
LINE
  5
AB
330
26
100
AcDbEntity
  8
G_0-L_0
  6
Continuous
 62
     7
370
    18
100
AcDbLine
 10
1140.875507
 20
28801.628484
 30
0.0
 11
1140.875507
 21
801.628484
 31
0.0
  0
LINE
  5
AC
330
26
100
AcDbEntity
  8
G_0-L_0
  6
Continuous
 62
     7
370
    18
100
AcDbLine
 10
41139.6913271
 20
28801.628484
 30
0.0
 11
41139.6913271
 21
801.628484
 31
0.0
  0
LINE
  5
AD
330
26
100
AcDbEntity
  8
G_0-L_0
  6
Continuous
 62
     7
370
    18
100
AcDbLine
 10
1140.875507
 20
27601.628484
 30
0.0
 11
41139.6913271
 21
27601.628484
 31
0.0
  0
LINE
  5
AE
330
26
100
AcDbEntity
  8
G_0-L_0
  6
Continuous
 62
     7
370
    18
100
AcDbLine
 10
30739.6913271
 20
16251.6293088
 30
0.0
 11
30739.6913271
 21
27601.628484
 31
0.0
  0
LINE
  5
B0
330
26
100
AcDbEntity
  8
G_0-L_0
  6
Continuous
 62
     7
370
    18
100
AcDbLine
 10
30739.6913271
 20
21251.628484
 30
0.0
 11
41139.6913271
 21
21251.628484
 31
0.0
  0
LINE
  5
B1
330
26
100
AcDbEntity
  8
G_0-L_0
  6
Continuous
 62
     7
370
    18
100
AcDbLine
 10
30739.6913271
 20
26751.628484
 30
0.0
 11
41139.6913271
 21
26751.628484
 31
0.0
  0
LINE
  5
B7
330
26
100
AcDbEntity
  8
G_0-L_0
  6
Continuous
 62
     7
370
    18
100
AcDbLine
 10
30739.6913271
 20
27601.628484
 30
0.0
 11
30739.6913271
 21
28801.628484
 31
0.0
  0
LINE
  5
B8
330
26
100
AcDbEntity
  8
G_0-L_0
  6
Continuous
 62
     7
370
    18
100
AcDbLine
 10
30739.6913271
 20
16251.6293088
 30
0.0
 11
41139.6909971
 21
16251.6293088
 31
0.0
  0
LINE
  5
B9
330
26
100
AcDbEntity
  8
G_0-L_0
  6
Continuous
 62
     7
370
    18
100
AcDbLine
 10
1140.875507
 20
801.628484
 30
0.0
 11
41139.6913271
 21
801.628484
 31
0.0
  0
TEXT
  5
BB
330
26
100
AcDbEntity
  8
G_0-L_0
 62
     7
100
AcDbText
 10
31058.5258522
 20
27005.2167198
 30
0.0
 40
346.1538462
  1
案 内 図 Ｈ〇〇年 〇〇 部 Ｐ.〇〇〇 〇－〇 申請地
 41
0.888888888888889
  7
ゴシック
100
AcDbText
  0
LINE
  5
13A
330
26
100
AcDbEntity
  8
G_0-L_0
  6
Continuous
 62
     7
370
    18
100
AcDbLine
 10
30739.6913271
 20
27601.628484
 30
0.0
 11
30739.6913271
 21
28801.628484
 31
0.0
  0
LINE
  5
13B
330
26
100
AcDbEntity
  8
G_0-L_0
  6
Continuous
 62
     7
370
    18
100
AcDbLine
 10
8140.875506999997
 20
28801.628484
 30
0.0
 11
8140.875506999997
 21
27601.628484
 31
0.0
  0
LINE
  5
13C
330
26
100
AcDbEntity
  8
G_0-L_0
  6
Continuous
 62
     7
370
    18
100
AcDbLine
 10
3140.875506999997
 20
27601.628484
 30
0.0
 11
3140.875506999997
 21
28801.628484
 31
0.0
  0
LINE
  5
13D
330
26
100
AcDbEntity
  8
G_0-L_0
  6
Continuous
 62
     7
370
    18
100
AcDbLine
 10
10640.875507
 20
28801.628484
 30
0.0
 11
10640.875507
 21
27601.628484
 31
0.0
  0
LINE
  5
13E
330
26
100
AcDbEntity
  8
G_0-L_0
  6
Continuous
 62
     7
370
    18
100
AcDbLine
 10
28239.6913271
 20
27601.628484
 30
0.0
 11
28239.6913271
 21
28801.628484
 31
0.0
  0
TEXT
  5
13F
330
26
100
AcDbEntity
  8
G_0-L_0
 62
     7
100
AcDbText
 10
8414.625184399996
 20
28062.0095513
 30
0.0
 40
346.1538462
  1
設 置 場 所
 41
0.8
  7
ゴシック
100
AcDbText
  0
TEXT
  5
140
330
26
100
AcDbEntity
  8
G_0-L_0
 62
     7
100
AcDbText
 10
1248.765017499996
 20
28022.1457158
 30
0.0
 40
346.1538462
  1
申込年月日
 41
0.8
  7
ゴシック
100
AcDbText
  0
LINE
  5
141
330
26
100
AcDbEntity
  8
G_0-L_0
  6
Continuous
 62
     7
370
    18
100
AcDbLine
 10
25739.6913271
 20
27601.628484
 30
0.0
 11
25739.6913271
 21
28801.628484
 31
0.0
  0
LINE
  5
143
330
26
100
AcDbEntity
  8
G_0-L_0
  6
Continuous
 62
     7
370
    18
100
AcDbLine
 10
30739.6913271
 20
27601.628484
 30
0.0
 11
30739.6913271
 21
28801.628484
 31
0.0
  0
LINE
  5
144
330
26
100
AcDbEntity
  8
G_0-L_0
  6
Continuous
 62
     7
370
    18
100
AcDbLine
 10
33239.6913271
 20
27601.628484
 30
0.0
 11
33239.6913271
 21
28801.628484
 31
0.0
  0
TEXT
  5
145
330
26
100
AcDbEntity
  8
G_0-L_0
 62
     7
100
AcDbText
 10
31004.771246
 20
28034.0519268
 30
0.0
 40
346.1538462
  1
工 事 番 号
 41
0.8
  7
ゴシック
100
AcDbText
  0
LINE
  5
146
330
26
100
AcDbEntity
  8
G_0-L_0
  6
Continuous
 62
     7
370
    18
100
AcDbLine
 10
16640.875507
 20
28801.628484
 30
0.0
 11
16640.875507
 21
27601.628484
 31
0.0
  0
LINE
  5
147
330
26
100
AcDbEntity
  8
G_0-L_0
  6
Continuous
 62
     7
370
    18
100
AcDbLine
 10
19140.875507
 20
28801.628484
 30
0.0
 11
19140.875507
 21
27601.628484
 31
0.0
  0
TEXT
  5
148
330
26
100
AcDbEntity
  8
G_0-L_0
 62
     7
100
AcDbText
 10
16854.3581267
 20
28019.2727241
 30
0.0
 40
346.1538462
  1
工事事業者名
 41
0.8
  7
ゴシック
100
AcDbText
  0
LINE
  5
149
330
26
100
AcDbEntity
  8
G_0-L_0
  6
Continuous
 62
     7
370
    18
100
AcDbLine
 10
25739.6913271
 20
27601.628484
 30
0.0
 11
25739.6913271
 21
28801.628484
 31
0.0
  0
LINE
  5
1C0
330
26
100
AcDbEntity
  8
G_0-L_1
  6
Continuous
 62
     7
370
    18
100
AcDbLine
 10
4580.516379171962
 20
25934.71562982562
 30
0.0
 11
4559.218817988234
 21
24192.24728571254
 31
0.0
  0
LINE
  5
1C1
330
26
100
AcDbEntity
  8
G_0-L_1
  6
Continuous
 62
     7
370
    18
100
AcDbLine
 10
4587.027662246026
 20
25934.61838424655
 30
0.0
 11
4337.277142706243
 21
25338.24692764124
 31
0.0
  0
LINE
  5
1C2
330
26
100
AcDbEntity
  8
G_0-L_1
  6
Continuous
 62
     7
370
    18
100
AcDbLine
 10
4816.39184309081
 20
25329.79177606336
 30
0.0
 11
4337.277142706243
 21
25338.24692764124
 31
0.0
  0
LINE
  5
1C3
330
26
100
AcDbEntity
  8
G_0-L_1
  6
Continuous
 62
     7
370
    18
100
AcDbLine
 10
4865.796149914421
 20
24728.82706600766
 30
0.0
 11
4265.889100075686
 21
24739.413894282
 31
0.0
  0
TEXT
  5
1C4
330
26
100
AcDbEntity
  8
G_0-L_1
 62
     7
100
AcDbText
 10
3876.935020846924
 20
23563.6814734497
 30
0.0
 40
269.2307692
  1
（縮　尺）
 41
0.857142857142857
  7
ゴシック
100
AcDbText
  0
LINE
  5
23B
330
26
100
AcDbEntity
  8
G_0-L_2
  6
Continuous
 62
     7
370
    13
100
AcDbLine
 10
5548.35692895484
 20
4353.8438763
 30
0.0
 11
5548.35692895484
 21
1953.8436863
 31
0.0
  0
LINE
  5
23C
330
26
100
AcDbEntity
  8
G_0-L_2
  6
Continuous
 62
     7
370
    13
100
AcDbLine
 10
2281.68831465484
 20
4353.8438763
 30
0.0
 11
2281.68831465484
 21
1953.8436863
 31
0.0
  0
LINE
  5
23D
330
26
100
AcDbEntity
  8
G_0-L_2
  6
Continuous
 62
     7
370
    13
100
AcDbLine
 10
2281.68831465484
 20
4353.8438763
 30
0.0
 11
5548.35692895484
 21
4353.8438763
 31
0.0
  0
LINE
  5
23E
330
26
100
AcDbEntity
  8
G_0-L_2
  6
Continuous
 62
     7
370
    13
100
AcDbLine
 10
2281.68831465484
 20
1953.8436863
 30
0.0
 11
5548.35692895484
 21
1953.8436863
 31
0.0
  0
LINE
  5
23F
330
26
100
AcDbEntity
  8
G_0-L_2
  6
Continuous
 62
     7
370
    13
100
AcDbLine
 10
2281.68831465484
 20
3892.2494029
 30
0.0
 11
5548.35692895484
 21
3892.2494029
 31
0.0
  0
TEXT
  5
240
330
26
100
AcDbEntity
  8
G_0-L_2
 62
     7
100
AcDbText
 10
2515.70509695484
 20
2596.3404426
 30
0.0
 40
269.2307692
  1
Ａ：Ｄ＝
 41
0.857142857142857
  7
ゴシック
100
AcDbText
  0
TEXT
  5
241
330
26
100
AcDbEntity
  8
G_0-L_2
 62
     7
100
AcDbText
 10
2515.70509695484
 20
3063.5726203
 30
0.0
 40
269.2307692
  1
Ａ：Ｃ＝
 41
0.857142857142857
  7
ゴシック
100
AcDbText
  0
TEXT
  5
242
330
26
100
AcDbEntity
  8
G_0-L_2
 62
     7
100
AcDbText
 10
2661.266267009681
 20
4019.2763527
 30
0.0
 40
269.2307692
  1
オフセット値
 41
0.857142857142857
  7
ゴシック
100
AcDbText
  0
TEXT
  5
243
330
26
100
AcDbEntity
  8
G_0-L_2
 62
     7
100
AcDbText
 10
2815.70506595484
 20
2150.3450176
 30
0.0
 40
269.2307692
  1
Ｈ　＝
 41
0.857142857142857
  7
ゴシック
100
AcDbText
  0
TEXT
  5
244
330
26
100
AcDbEntity
  8
G_0-L_2
 62
     7
100
AcDbText
 10
2515.70509695484
 20
3488.329543
 30
0.0
 40
269.2307692
  1
Ａ：Ｂ＝
 41
0.857142857142857
  7
ゴシック
100
AcDbText
  0
LWPOLYLINE
  5
29E
330
26
100
AcDbEntity
  8
G_0-L_1
  6
Continuous
 62
     7
370
    13
100
AcDbPolyline
 90
        3
 70
   128
 43
0.0
 10
5913.061690254841
 20
4112.362419800002
 10
5848.35692895484
 20
4353.843876300001
 10
5783.65216765484
 20
4112.362419800002
  0
TEXT
  5
29F
330
26
100
AcDbEntity
  8
G_0-L_1
 62
     7
100
AcDbText
 10
5848.35692895484
 20
3066.645799898879
 30
0.0
 40
269.2307692
  1
２．５cm
 41
0.857142857142857
  7
ゴシック
100
AcDbText
  0
LINE
  5
2A0
330
26
100
AcDbEntity
  8
G_0-L_1
  6
Continuous
 62
     7
370
    13
100
AcDbLine
 10
5848.35692895484
 20
4353.843876300001
 30
0.0
 11
5848.35692895484
 21
1953.8436863
 31
0.0
  0
LWPOLYLINE
  5
2A1
330
26
100
AcDbEntity
  8
G_0-L_1
  6
Continuous
 62
     7
370
    13
100
AcDbPolyline
 90
        3
 70
   128
 43
0.0
 10
5783.65216765484
 20
2195.325142900001
 10
5848.35692895484
 20
1953.8436863
 10
5913.061690254841
 20
2195.325142900001
  0
LWPOLYLINE
  5
2D1
330
26
100
AcDbEntity
  8
G_0-L_1
  6
Continuous
 62
     7
370
    13
100
AcDbPolyline
 90
        3
 70
   128
 43
0.0
 10
2523.16977115484
 20
4718.548637600002
 10
2281.68831465484
 20
4653.8438763
 10
2523.16977115484
 20
4589.139115000001
  0
TEXT
  5
2D2
330
26
100
AcDbEntity
  8
G_0-L_1
 62
     7
100
AcDbText
 10
3292.226958422861
 20
4746.757759898195
 30
0.0
 40
269.2307692
  1
３．７cm
 41
0.857142857142857
  7
ゴシック
100
AcDbText
  0
LINE
  5
2D3
330
26
100
AcDbEntity
  8
G_0-L_1
  6
Continuous
 62
     7
370
    13
100
AcDbLine
 10
2281.68831465484
 20
4653.8438763
 30
0.0
 11
5548.35692895484
 21
4653.8438763
 31
0.0
  0
LWPOLYLINE
  5
2D4
330
26
100
AcDbEntity
  8
G_0-L_1
  6
Continuous
 62
     7
370
    13
100
AcDbPolyline
 90
        3
 70
   128
 43
0.0
 10
5306.875472354839
 20
4589.139115000001
 10
5548.35692895484
 20
4653.8438763
 10
5306.875472354839
 20
4718.548637600002
  0
LINE
  5
323
330
26
100
AcDbEntity
  8
G_0-L_4
  6
Continuous
 62
     7
370
    18
100
AcDbLine
 10
23445.94798310679
 20
26198.760679
 30
0.0
 11
28444.40684540679
 21
26198.760679
 31
0.0
  0
LINE
  5
324
330
26
100
AcDbEntity
  8
G_0-L_4
  6
Continuous
 62
     7
370
    18
100
AcDbLine
 10
28444.40684540679
 20
26198.760679
 30
0.0
 11
23444.40379370679
 21
26198.760679
 31
0.0
  0
LINE
  5
325
330
26
100
AcDbEntity
  8
G_0-L_4
  6
Continuous
 62
     7
370
    18
100
AcDbLine
 10
23442.85960430679
 20
26198.760679
 30
0.0
 11
23442.85960430679
 21
24798.760679
 31
0.0
  0
LINE
  5
326
330
26
100
AcDbEntity
  8
G_0-L_4
  6
Continuous
 62
     7
370
    18
100
AcDbLine
 10
25109.52830540679
 20
26198.760679
 30
0.0
 11
25109.52830540679
 21
24798.760679
 31
0.0
  0
LINE
  5
327
330
26
100
AcDbEntity
  8
G_0-L_4
  6
Continuous
 62
     7
370
    18
100
AcDbLine
 10
23444.40379370679
 20
25498.760679
 30
0.0
 11
28442.86265600679
 21
25498.760679
 31
0.0
  0
LINE
  5
328
330
26
100
AcDbEntity
  8
G_0-L_4
  6
Continuous
 62
     7
370
    18
100
AcDbLine
 10
23442.85960430679
 20
24798.760679
 30
0.0
 11
28442.86265600679
 21
24798.760679
 31
0.0
  0
LINE
  5
329
330
26
100
AcDbEntity
  8
G_0-L_4
  6
Continuous
 62
     7
370
    18
100
AcDbLine
 10
28444.40684540679
 20
26198.760679
 30
0.0
 11
28442.86265600679
 21
24798.760679
 31
0.0
  0
LINE
  5
32E
330
26
100
AcDbEntity
  8
G_0-L_4
  6
Continuous
 62
     7
370
    18
100
AcDbLine
 10
23444.40379370679
 20
26198.760679
 30
0.0
 11
28442.86265600679
 21
26198.760679
 31
0.0
  0
TEXT
  5
32F
330
26
100
AcDbEntity
  8
G_0-L_4
 62
     7
100
AcDbText
 10
26327.19897000679
 20
25752.4672388
 30
0.0
 40
230.7692308
  1
品　名
  7
ゴシック
100
AcDbText
  0
TEXT
  5
330
330
26
100
AcDbEntity
  8
G_0-L_4
 62
     7
100
AcDbText
 10
24054.23800800679
 20
25037.68838699999
 30
0.0
 40
269.2307692
  1
(1)
 41
0.857142857142857
  7
ゴシック
100
AcDbText
  0
LINE
  5
339
330
26
100
AcDbEntity
  8
G_0-L_4
  6
Continuous
 62
     7
370
    18
100
AcDbLine
 10
23442.85960430679
 20
24798.760679
 30
0.0
 11
28442.86265600679
 21
24798.760679
 31
0.0
  0
LWPOLYLINE
  5
36C
330
26
100
AcDbEntity
  8
G_0-L_1
  6
Continuous
 62
     7
370
    13
100
AcDbPolyline
 90
        3
 70
   128
 43
0.0
 10
30981.1727836
 20
16016.3340701
 10
30739.6913271
 20
15951.6293088
 10
30981.1727836
 20
15886.9245475
  0
TEXT
  5
36D
330
26
100
AcDbEntity
  8
G_0-L_1
 62
     7
100
AcDbText
 10
35232.265345814
 20
15552.97545445073
 30
0.0
 40
269.2307692
  1
１０．４cm
 41
0.857142857142857
  7
ゴシック
100
AcDbText
  0
LINE
  5
36E
330
26
100
AcDbEntity
  8
G_0-L_1
  6
Continuous
 62
     7
370
    13
100
AcDbLine
 10
30739.6913271
 20
15951.6293088
 30
0.0
 11
41139.6913271
 21
15951.6293088
 31
0.0
  0
LWPOLYLINE
  5
36F
330
26
100
AcDbEntity
  8
G_0-L_1
  6
Continuous
 62
     7
370
    13
100
AcDbPolyline
 90
        3
 70
   128
 43
0.0
 10
40898.2098705
 20
15886.9245475
 10
41139.6913271
 20
15951.6293088
 10
40898.2098705
 20
16016.3340701
  0
LWPOLYLINE
  5
370
330
26
100
AcDbEntity
  8
G_0-L_1
  6
Continuous
 62
     7
370
    13
100
AcDbPolyline
 90
        3
 70
   128
 43
0.0
 10
30504.3960884
 20
27360.1470275
 10
30439.6913271
 20
27601.628484
 10
30374.9865658
 20
27360.1470275
  0
TEXT
  5
371
330
26
100
AcDbEntity
  8
G_0-L_1
 62
     7
100
AcDbText
 10
28997.8646058116
 20
24139.12737847581
 30
0.0
 40
269.2307692
  1
６．２cm
 41
0.857142857142857
  7
ゴシック
100
AcDbText
  0
LINE
  5
372
330
26
100
AcDbEntity
  8
G_0-L_1
  6
Continuous
 62
     7
370
    13
100
AcDbLine
 10
30439.6913271
 20
27601.628484
 30
0.0
 11
30439.6913271
 21
16251.6293088
 31
0.0
  0
LWPOLYLINE
  5
373
330
26
100
AcDbEntity
  8
G_0-L_1
  6
Continuous
 62
     7
370
    13
100
AcDbPolyline
 90
        3
 70
   128
 43
0.0
 10
30374.9865658
 20
16493.1107654
 10
30439.6913271
 20
16251.6293088
 10
30504.3960884
 20
16493.1107654
  0
LWPOLYLINE
  5
3CD
330
26
100
AcDbEntity
  8
G_0-L_1
  6
Continuous
 62
     7
370
    13
100
AcDbPolyline
 90
        3
 70
   128
 43
0.0
 10
30374.9865658
 20
21493.1099406
 10
30439.6913271
 20
21251.628484
 10
30504.3960884
 20
21493.1099406
  0
LWPOLYLINE
  5
3F6
330
26
100
AcDbEntity
  8
G_0-L_1
  6
Continuous
 62
     7
370
    13
100
AcDbPolyline
 90
        3
 70
   128
 43
0.0
 10
30504.3960884
 20
21010.1470275
 10
30439.6913271
 20
21251.628484
 10
30374.9865658
 20
21010.1470275
  0
TEXT
  5
420
330
26
100
AcDbEntity
  8
G_0-L_1
 62
     7
100
AcDbText
 10
28975.83464872597
 20
18787.79122185295
 30
0.0
 40
269.2307692
  1
５．０cm
 41
0.857142857142857
  7
ゴシック
100
AcDbText
  0
LINE
  5
474
330
26
100
AcDbEntity
  8
G_0-L_3
  6
Continuous
 62
     7
370
    13
100
AcDbLine
 10
40107.01533429999
 20
6744.142970300001
 30
0.0
 11
34543.2919756
 21
6744.142970300001
 31
0.0
  0
LINE
  5
475
330
26
100
AcDbEntity
  8
G_0-L_3
  6
CENTER2
 62
     7
370
    13
100
AcDbLine
 10
39648.873678
 20
14149.1429703
 30
0.0
 11
35136.373678
 21
14149.1429703
 31
0.0
  0
LINE
  5
476
330
26
100
AcDbEntity
  8
G_0-L_3
  6
Continuous
 62
     7
370
    13
100
AcDbLine
 10
40107.01533429999
 20
4744.142970300001
 30
0.0
 11
34543.2919756
 21
4744.142970300001
 31
0.0
  0
LINE
  5
477
330
26
100
AcDbEntity
  8
G_0-L_3
  6
Continuous
 62
     7
370
    13
100
AcDbLine
 10
40107.01533429999
 20
6494.142970300001
 30
0.0
 11
34543.2919756
 21
6494.142970300001
 31
0.0
  0
LINE
  5
47B
330
26
100
AcDbEntity
  8
G_0-L_3
  6
CENTER2
 62
     7
370
    13
100
AcDbLine
 10
39648.873678
 20
14149.1429703
 30
0.0
 11
39648.873678
 21
6744.142970300001
 31
0.0
  0
LINE
  5
47C
330
26
100
AcDbEntity
  8
G_0-L_3
  6
CENTER2
 62
     7
370
    13
100
AcDbLine
 10
35136.373678
 20
14149.1429703
 30
0.0
 11
35136.373678
 21
6744.142970300001
 31
0.0
  0
LINE
  5
47D
330
26
100
AcDbEntity
  8
G_0-L_3
  6
Continuous
 62
     7
370
    35
100
AcDbLine
 10
36219.06353989999
 20
6031.642970300001
 30
0.0
 11
35007.74912099999
 21
6031.642970300001
 31
0.0
  0
LINE
  5
47E
330
26
100
AcDbEntity
  8
G_0-L_3
  6
Continuous
 62
     7
370
    35
100
AcDbLine
 10
36219.06353989999
 20
5956.642970300001
 30
0.0
 11
35007.74912099999
 21
5956.642970300001
 31
0.0
  0
LINE
  5
47F
330
26
100
AcDbEntity
  8
G_0-L_3
  6
DASHED2
 62
     7
370
    18
100
AcDbLine
 10
35615.5616942
 20
6030.896299400001
 30
0.0
 11
35615.5616942
 21
7319.8038127
 31
0.0
  0
LINE
  5
480
330
26
100
AcDbEntity
  8
G_0-L_3
  6
DASHED2
 62
     7
370
    18
100
AcDbLine
 10
35615.5616942
 20
7319.8038127
 30
0.0
 11
36296.65663430001
 21
7319.8038127
 31
0.0
  0
LINE
  5
481
330
26
100
AcDbEntity
  8
G_0-L_3
  6
DASHED2
 62
     7
370
    18
100
AcDbLine
 10
35758.70463849999
 20
7147.3784934
 30
0.0
 11
35471.3973143
 21
6827.352699900001
 31
0.0
  0
LINE
  5
482
330
26
100
AcDbEntity
  8
G_0-L_3
  6
DASHED2
 62
     7
370
    18
100
AcDbLine
 10
35757.6817259
 20
6828.3756125
 30
0.0
 11
35471.3973143
 21
7146.355580800002
 31
0.0
  0
LINE
  5
483
330
26
100
AcDbEntity
  8
G_0-L_3
  6
DASHED2
 62
     7
370
    18
100
AcDbLine
 10
36396.6550322
 20
7469.804007500001
 30
0.0
 11
36396.6550322
 21
7169.803610800001
 31
0.0
  0
LINE
  5
484
330
26
100
AcDbEntity
  8
G_0-L_3
  6
DASHED2
 62
     7
370
    18
100
AcDbLine
 10
36296.65663430001
 20
7469.804007500001
 30
0.0
 11
36296.65663430001
 21
7169.803610800001
 31
0.0
  0
LINE
  5
485
330
26
100
AcDbEntity
  8
G_0-L_3
  6
DASHED2
 62
     7
370
    18
100
AcDbLine
 10
36496.6534147
 20
7467.300116500001
 30
0.0
 11
36496.6534147
 21
7169.803610800001
 31
0.0
  0
LINE
  5
486
330
26
100
AcDbEntity
  8
G_0-L_3
  6
DASHED2
 62
     7
370
    18
100
AcDbLine
 10
36496.6534147
 20
7467.300116500001
 30
0.0
 11
36646.1418142
 21
7317.8117189
 31
0.0
  0
LINE
  5
487
330
26
100
AcDbEntity
  8
G_0-L_3
  6
DASHED2
 62
     7
370
    18
100
AcDbLine
 10
36796.6485624
 20
7468.318472800001
 30
0.0
 11
36646.1418142
 21
7317.8117189
 31
0.0
  0
LINE
  5
488
330
26
100
AcDbEntity
  8
G_0-L_3
  6
DASHED2
 62
     7
370
    18
100
AcDbLine
 10
36796.6485624
 20
7468.318472800001
 30
0.0
 11
36796.6485624
 21
7169.803610800001
 31
0.0
  0
LWPOLYLINE
  5
489
330
26
100
AcDbEntity
  8
G_0-L_3
  6
DASHED2
 62
     7
370
    18
100
AcDbPolyline
 90
        4
 70
   129
 43
0.0
 10
39101.6989253
 20
8895.9790288
 10
35843.53591709999
 20
8895.9790288
 10
35843.53591709999
 20
13270.5755153
 10
39101.6989253
 20
13270.5755153
  0
TEXT
  5
48F
330
26
100
AcDbEntity
  8
G_0-L_3
 62
     7
100
AcDbText
 10
34602.4793671
 20
3987.935982200001
 30
0.0
 40
269.2307692
  1
撤去メータ　φ〇〇　　〇〇〇〇〇〇
 41
0.857142857142857
  7
ゴシック
100
AcDbText
  0
TEXT
  5
490
330
26
100
AcDbEntity
  8
G_0-L_3
 62
     7
100
AcDbText
 10
36986.5392047
 20
11273.8295661
 30
0.0
 40
269.2307692
  1
撤去建物
 41
0.857142857142857
  7
ゴシック
100
AcDbText
  0
TEXT
  5
491
330
26
100
AcDbEntity
  8
G_0-L_3
 62
     7
100
AcDbText
 10
36381.7846503
 20
3268.157463300002
 30
0.0
 40
346.1538462
  1
撤　去　図
 41
0.8
  7
ゴシック
100
AcDbText
  0
LWPOLYLINE
  5
4BF
330
26
100
AcDbEntity
  8
G_0-L_1
  6
Continuous
 62
     7
370
    13
100
AcDbPolyline
 90
        3
 70
   128
 43
0.0
 10
23687.42943960679
 20
26328.1702016
 10
23445.94798310679
 20
26263.4654403
 10
23687.42943960679
 20
26198.760679
  0
TEXT
  5
4C0
330
26
100
AcDbEntity
  8
G_0-L_1
 62
     7
100
AcDbText
 10
23662.57753185023
 20
26356.37932389819
 30
0.0
 40
269.2307692
  1
１．５cm
 41
0.857142857142857
  7
ゴシック
100
AcDbText
  0
LINE
  5
4C1
330
26
100
AcDbEntity
  8
G_0-L_1
  6
Continuous
 62
     7
370
    13
100
AcDbLine
 10
23445.94798310679
 20
26263.4654403
 30
0.0
 11
28442.86265600679
 21
26263.4654403
 31
0.0
  0
LWPOLYLINE
  5
4C2
330
26
100
AcDbEntity
  8
G_0-L_1
  6
Continuous
 62
     7
370
    13
100
AcDbPolyline
 90
        3
 70
   128
 43
0.0
 10
28201.38119940679
 20
26198.760679
 10
28442.86265600679
 20
26263.4654403
 10
28201.38119940679
 20
26328.1702016
  0
LWPOLYLINE
  5
4EB
330
26
100
AcDbEntity
  8
G_0-L_1
  6
Continuous
 62
     7
370
    13
100
AcDbPolyline
 90
        3
 70
   128
 43
0.0
 10
24868.04684880679
 20
26198.760679
 10
25109.52830540679
 20
26263.4654403
 10
24868.04684880679
 20
26328.1702016
  0
LWPOLYLINE
  5
516
330
26
100
AcDbEntity
  8
G_0-L_1
  6
Continuous
 62
     7
370
    13
100
AcDbPolyline
 90
        3
 70
   128
 43
0.0
 10
25351.00976190679
 20
26328.1702016
 10
25109.52830540679
 20
26263.4654403
 10
25351.00976190679
 20
26198.760679
  0
TEXT
  5
517
330
26
100
AcDbEntity
  8
G_0-L_1
 62
     7
100
AcDbText
 10
26201.43613386475
 20
26337.86194248409
 30
0.0
 40
269.2307692
  1
３．２cm
 41
0.857142857142857
  7
ゴシック
100
AcDbText
  0
TEXT
  5
561
330
26
100
AcDbEntity
  8
G_0-L_0
 62
     7
100
AcDbText
 10
36063.54128085582
 20
27962.29073453966
 30
0.0
 40
346.1538462
  1
局にて記入
 41
0.8
  7
ゴシック
100
AcDbText
  0
TEXT
  5
587
330
26
100
AcDbEntity
  8
G_0-L_0
 62
     7
100
AcDbText
 10
4682.572421064689
 20
27989.47552967505
 30
0.0
 40
346.1538462
  1
局にて記入
 41
0.8
  7
ゴシック
100
AcDbText
  0
TEXT
  5
5AD
330
26
100
AcDbEntity
  8
G_0-L_0
 62
     7
100
AcDbText
 10
9284.161191325566
 20
6220.116493967353
 30
0.0
 40
346.1538462
  1
平　面　図
 41
0.8
  7
ゴシック
100
AcDbText
  0
TEXT
  5
5D3
330
26
100
AcDbEntity
  8
G_0-L_0
 62
     7
100
AcDbText
 10
24643.99298155654
 20
6143.108050961164
 30
0.0
 40
346.1538462
  1
立　面　図
 41
0.8
  7
ゴシック
100
AcDbText
  0
TEXT
  5
629
330
26
100
AcDbEntity
  8
G_0-L_0
 62
     7
100
AcDbText
 10
32932.03490274998
 20
21592.70222321817
 30
0.0
 40
500.0
  1
住宅地図の写しを張り付ける
 41
0.8
  7
ゴシック
100
AcDbText
  0
LINE
  5
665
330
26
100
AcDbEntity
  8
0
  6
Continuous
100
AcDbLine
 10
28239.6913271
 20
28201.628484
 30
0.0
 11
30739.6913271
 21
28201.628484
 31
0.0
  0
LINE
  5
6C9
330
26
100
AcDbEntity
  8
G_0-L_0
  6
Continuous
 62
     7
370
    18
100
AcDbLine
 10
41139.6913271
 20
1800.7198231
 30
0.0
 11
36120.2089052
 21
1800.7198231
 31
0.0
  0
LINE
  5
6CA
330
26
100
AcDbEntity
  8
G_0-L_0
  6
Continuous
 62
     7
370
    18
100
AcDbLine
 10
36120.2089052
 20
801.6284839999998
 30
0.0
 11
36120.2089052
 21
1800.7198231
 31
0.0
  0
TEXT
  5
6CB
330
26
100
AcDbEntity
  8
G_0-L_0
 62
     7
100
AcDbText
 10
37330.23087789999
 20
1068.0447109
 30
0.0
 40
423.0769231
  1
竣　工　図
  7
ゴシック
100
AcDbText
  0
LINE
  5
6FE
330
26
100
AcDbEntity
  8
G_0-L_0
  6
Continuous
 62
     7
370
    13
100
AcDbLine
 10
35565.7409342
 20
1573.9963186
 30
0.0
 11
34973.1118883
 21
981.3672727000003
 31
0.0
  0
TEXT
  5
6FF
330
26
100
AcDbEntity
  8
G_0-L_0
 62
     7
100
AcDbText
 10
35372.6630413
 20
1021.1138216
 30
0.0
 40
269.2307692
  1
１
 41
0.857142857142857
  7
ゴシック
100
AcDbText
  0
TEXT
  5
700
330
26
100
AcDbEntity
  8
G_0-L_0
 62
     7
100
AcDbText
 10
34858.1550223
 20
1323.422499400001
 30
0.0
 40
269.2307692
  1
１
 41
0.857142857142857
  7
ゴシック
100
AcDbText
  0
LINE
  5
72E
330
26
100
AcDbEntity
  8
G_0-L_0
  6
Continuous
 62
     7
370
    18
100
AcDbLine
 10
28239.6913271
 20
27601.628484
 30
0.0
 11
28239.6913271
 21
28801.628484
 31
0.0
  0
LINE
  5
72F
330
26
100
AcDbEntity
  8
G_0-L_0
  6
Continuous
 62
     7
370
    18
100
AcDbLine
 10
28239.6913271
 20
27601.628484
 30
0.0
 11
28239.6913271
 21
28801.628484
 31
0.0
  0
TEXT
  5
730
330
26
100
AcDbEntity
  8
G_0-L_0
 62
     7
100
AcDbText
 10
26004.771246
 20
28317.31058107984
 30
0.0
 40
346.1538462
  1
工 事 種 別
 41
0.8
  7
ゴシック
100
AcDbText
  0
LINE
  5
731
330
26
100
AcDbEntity
  8
G_0-L_0
  6
Continuous
 62
     7
370
    18
100
AcDbLine
 10
28239.6913271
 20
27601.628484
 30
0.0
 11
28239.6913271
 21
28801.628484
 31
0.0
  0
LINE
  5
732
330
26
100
AcDbEntity
  8
0
  6
Continuous
100
AcDbLine
 10
25739.6913271
 20
28201.628484
 30
0.0
 11
30739.6913271
 21
28201.628484
 31
0.0
  0
TEXT
  5
733
330
26
100
AcDbEntity
  8
G_0-L_0
 62
     7
100
AcDbText
 10
26008.72758769962
 20
27745.12488301629
 30
0.0
 40
346.1538462
  1
配 水 池 名
 41
0.8
  7
ゴシック
100
AcDbText
  0
VIEWPORT
  5
14A
102
{ACAD_XDICTIONARY
360
14B
102
}
330
27
100
AcDbEntity
 67
     1
  8
0
  6
Continuous
100
AcDbViewport
 10
0.0
 20
0.0
 30
0.0
 40
538.0417124394186
 41
222.1800000000001
 68
     1
 69
     1
 12
161.036784884895
 22
117.5301865407916
 13
0.0
 23
0.0
 14
10.0
 24
10.0
 15
10.0
 25
10.0
 16
0.0
 26
0.0
 36
1.0
 17
0.0
 27
0.0
 37
0.0
 42
50.0
 43
0.0
 44
0.0
 45
222.1800000000001
 50
0.0
 51
0.0
 72
   100
 90
   557088
  1

281
     0
 71
     1
 74
     0
110
0.0
120
0.0
130
0.0
111
1.0
121
0.0
131
0.0
112
0.0
122
1.0
132
0.0
 79
     0
146
0.0
170
     0
 61
     5
348
E0
292
     1
282
     1
141
0.0
142
0.0
 63
   250
  0
VIEWPORT
  5
14D
102
{ACAD_XDICTIONARY
360
14E
102
}
330
27
100
AcDbEntity
 67
     1
  8
0
  6
Continuous
100
AcDbViewport
 10
128.5
 20
97.5
 30
0.0
 40
226.8041237113402
 41
160.3665521191294
 68
     2
 69
     2
 12
21000.0
 22
17450.19184168013
 13
0.0
 23
0.0
 14
10.0
 24
10.0
 15
10.0
 25
10.0
 16
0.0
 26
0.0
 36
1.0
 17
0.0
 27
0.0
 37
0.0
 42
50.0
 43
0.0
 44
0.0
 45
35598.39135702746
 50
0.0
 51
0.0
 72
   100
 90
   819296
  1

281
     0
 71
     1
 74
     0
110
0.0
120
0.0
130
0.0
111
1.0
121
0.0
131
0.0
112
0.0
122
1.0
132
0.0
 79
     0
146
0.0
170
     0
 61
     5
348
E0
292
     1
282
     1
141
0.0
142
0.0
 63
   250
  0
ENDSEC
  0
SECTION
  2
OBJECTS
  0
DICTIONARY
  5
C
330
0
100
AcDbDictionary
281
     1
  3
ACAD_DETAILVIEWSTYLE
350
1CB
  3
ACAD_DGNDEFINITIONS
350
100
  3
ACAD_DWFDEFINITIONS
350
FF
  3
ACAD_GROUP
350
D
  3
ACAD_IMAGE_DICT
350
735
  3
ACAD_LAYOUT
350
C2
  3
ACAD_MATERIAL
350
F4
  3
ACAD_MLEADERSTYLE
350
FA
  3
ACAD_MLINESTYLE
350
E
  3
ACAD_PDFDEFINITIONS
350
FE
  3
ACAD_PLOTSETTINGS
350
C7
  3
ACAD_SCALELIST
350
C8
  3
ACAD_SECTIONVIEWSTYLE
350
1CC
  3
ACAD_TABLESTYLE
350
F8
  3
ACAD_VISUALSTYLE
350
DB
  3
ACDB_RECOMPOSE_DATA
350
738
  3
AcDbVariableDictionary
350
C3
  0
DICTIONARY
  5
630
330
2
100
AcDbDictionary
280
     1
281
     1
  3
ACLYDICTIONARY
360
734
  0
DICTIONARY
  5
62A
330
1C
100
AcDbDictionary
280
     1
281
     1
  3
ADSK_XREC_LAYER_RECONCILED
360
62B
  0
DICTIONARY
  5
62C
330
1D
100
AcDbDictionary
280
     1
281
     1
  3
ADSK_XREC_LAYER_RECONCILED
360
62D
  0
DICTIONARY
  5
62E
330
1E
100
AcDbDictionary
280
     1
281
     1
  3
ADSK_XREC_LAYER_RECONCILED
360
62F
  0
DICTIONARY
  5
158
330
157
100
AcDbDictionary
280
     1
281
     1
  3
ADSK_XREC_LAYER_RECONCILED
360
159
  0
DICTIONARY
  5
1CF
330
1CE
100
AcDbDictionary
280
     1
281
     1
  3
ADSK_XREC_LAYER_RECONCILED
360
1D0
  0
DICTIONARY
  5
2E0
330
2DF
100
AcDbDictionary
280
     1
281
     1
  3
ADSK_XREC_LAYER_RECONCILED
360
2E1
  0
DICTIONARY
  5
2E3
330
2E2
100
AcDbDictionary
280
     1
281
     1
  3
ADSK_XREC_LAYER_RECONCILED
360
2E4
  0
DICTIONARY
  5
429
330
428
100
AcDbDictionary
280
     1
281
     1
  3
ADSK_XREC_LAYER_RECONCILED
360
42A
  0
DICTIONARY
  5
42C
330
42B
100
AcDbDictionary
280
     1
281
     1
  3
ADSK_XREC_LAYER_RECONCILED
360
42D
  0
DICTIONARY
  5
14B
330
14A
100
AcDbDictionary
280
     1
281
     1
  3
ASDK_XREC_ANNOTATION_SCALE_INFO
360
14C
  0
DICTIONARY
  5
14E
330
14D
100
AcDbDictionary
280
     1
281
     1
  3
ASDK_XREC_ANNOTATION_SCALE_INFO
360
14F
  0
DICTIONARY
  5
1CB
102
{ACAD_REACTORS
330
C
102
}
330
C
100
AcDbDictionary
281
     1
  0
DICTIONARY
  5
100
102
{ACAD_REACTORS
330
C
102
}
330
C
100
AcDbDictionary
281
     1
  0
DICTIONARY
  5
FF
102
{ACAD_REACTORS
330
C
102
}
330
C
100
AcDbDictionary
281
     1
  0
DICTIONARY
  5
D
102
{ACAD_REACTORS
330
C
102
}
330
C
100
AcDbDictionary
281
     1
  0
DICTIONARY
  5
735
102
{ACAD_REACTORS
330
C
102
}
330
C
100
AcDbDictionary
281
     1
  0
DICTIONARY
  5
C2
102
{ACAD_REACTORS
330
C
102
}
330
C
100
AcDbDictionary
281
     1
  3
Model
350
C4
  3
レイアウト 1
350
DA
  0
DICTIONARY
  5
F4
102
{ACAD_REACTORS
330
C
102
}
330
C
100
AcDbDictionary
281
     1
  3
ByBlock
350
F6
  3
ByLayer
350
F5
  3
Global
350
F7
  0
DICTIONARY
  5
FA
102
{ACAD_REACTORS
330
C
102
}
330
C
100
AcDbDictionary
281
     1
  3
Standard
350
FB
  0
DICTIONARY
  5
E
102
{ACAD_REACTORS
330
C
102
}
330
C
100
AcDbDictionary
281
     1
  3
STANDARD
350
F
  0
DICTIONARY
  5
FE
102
{ACAD_REACTORS
330
C
102
}
330
C
100
AcDbDictionary
281
     1
  0
DICTIONARY
  5
C7
102
{ACAD_REACTORS
330
C
102
}
330
C
100
AcDbDictionary
281
     1
  0
DICTIONARY
  5
C8
102
{ACAD_REACTORS
330
C
102
}
330
C
100
AcDbDictionary
281
     1
  3
A0
350
C9
  3
A1
350
CA
  3
A2
350
CB
  3
A3
350
CC
  3
A4
350
CD
  3
A5
350
CE
  3
A6
350
CF
  3
A7
350
D0
  3
A8
350
D1
  3
A9
350
D2
  3
B0
350
D3
  3
B1
350
D4
  3
B2
350
D5
  3
B3
350
D6
  3
B4
350
D7
  3
B5
350
D8
  3
B6
350
D9
  0
DICTIONARY
  5
1CC
102
{ACAD_REACTORS
330
C
102
}
330
C
100
AcDbDictionary
281
     1
  0
DICTIONARY
  5
F8
102
{ACAD_REACTORS
330
C
102
}
330
C
100
AcDbDictionary
281
     1
  3
Standard
350
F9
  0
DICTIONARY
  5
DB
102
{ACAD_REACTORS
330
C
102
}
330
C
100
AcDbDictionary
281
     1
  3
2dWireframe
350
E0
  3
Basic
350
E3
  3
Brighten
350
E7
  3
ColorChange
350
EB
  3
Conceptual
350
E5
  3
Dim
350
E6
  3
EdgeColorOff
350
EE
  3
Facepattern
350
EA
  3
Flat
350
DC
  3
FlatWithEdges
350
DD
  3
Gouraud
350
DE
  3
GouraudWithEdges
350
DF
  3
Hidden
350
E2
  3
JitterOff
350
EC
  3
Linepattern
350
E9
  3
OverhangOff
350
ED
  3
Realistic
350
E4
  3
Shaded
350
F3
  3
Shaded with edges
350
F2
  3
Shades of Gray
350
EF
  3
Sketchy
350
F0
  3
Thicken
350
E8
  3
Wireframe
350
E1
  3
X-Ray
350
F1
  0
XRECORD
  5
738
102
{ACAD_REACTORS
330
C
102
}
330
C
100
AcDbXrecord
280
     1
 90
        1
330
F9
  0
DICTIONARY
  5
C3
102
{ACAD_REACTORS
330
C
102
}
330
C
100
AcDbDictionary
281
     1
  3
CANNOSCALE
350
1C7
  3
CMLEADERSTYLE
350
1C9
  3
CTABLESTYLE
350
1C8
  3
MSLTSCALE
350
1CA
  0
DICTIONARY
  5
734
102
{ACAD_REACTORS
330
630
102
}
330
630
100
AcDbDictionary
281
     1
1001
ACAD
1000
All
  0
XRECORD
  5
62B
102
{ACAD_REACTORS
330
62A
102
}
330
62A
100
AcDbXrecord
280
     1
290
     0
  0
XRECORD
  5
62D
102
{ACAD_REACTORS
330
62C
102
}
330
62C
100
AcDbXrecord
280
     1
290
     0
  0
XRECORD
  5
62F
102
{ACAD_REACTORS
330
62E
102
}
330
62E
100
AcDbXrecord
280
     1
290
     0
  0
XRECORD
  5
159
102
{ACAD_REACTORS
330
158
102
}
330
158
100
AcDbXrecord
280
     1
290
     0
  0
XRECORD
  5
1D0
102
{ACAD_REACTORS
330
1CF
102
}
330
1CF
100
AcDbXrecord
280
     1
290
     0
  0
XRECORD
  5
2E1
102
{ACAD_REACTORS
330
2E0
102
}
330
2E0
100
AcDbXrecord
280
     1
290
     0
  0
XRECORD
  5
2E4
102
{ACAD_REACTORS
330
2E3
102
}
330
2E3
100
AcDbXrecord
280
     1
290
     0
  0
XRECORD
  5
42A
102
{ACAD_REACTORS
330
429
102
}
330
429
100
AcDbXrecord
280
     1
290
     0
  0
XRECORD
  5
42D
102
{ACAD_REACTORS
330
42C
102
}
330
42C
100
AcDbXrecord
280
     1
290
     0
  0
XRECORD
  5
14C
102
{ACAD_REACTORS
330
14B
102
}
330
14B
100
AcDbXrecord
280
     1
 90
        1
340
C9
  0
XRECORD
  5
14F
102
{ACAD_REACTORS
330
14E
102
}
330
14E
100
AcDbXrecord
280
     1
 90
        1
340
D4
  0
LAYOUT
  5
C4
102
{ACAD_REACTORS
330
C2
102
}
330
C2
100
AcDbPlotSettings
  1

  2
SHARP MX-3650FN SPDL2-c_K
  4
A3
  6
用紙枠
 40
7.5
 41
20.0
 42
7.5
 43
20.0
 44
420.0
 45
297.0
 46
0.0
 47
0.0
 48
0.0
 49
0.0
140
0.0
141
0.0
142
1.0
143
100.0
 70
  1700
 72
     1
 73
     1
 74
     3
  7
monochrome.ctb
 75
    16
 76
     0
 77
     2
 78
   300
147
1.0
148
0.0
149
0.0
100
AcDbLayout
  1
Model
 70
     1
 71
     0
 10
0.0
 20
0.0
 11
0.0
 21
0.0
 12
0.0
 22
0.0
 32
0.0
 14
-0.000000000003638
 24
-0.000000000003638
 34
0.0
 15
42000.0
 25
29700.0
 35
0.0
146
0.0
 13
0.0
 23
0.0
 33
0.0
 16
1.0
 26
0.0
 36
0.0
 17
0.0
 27
1.0
 37
0.0
 76
     0
330
26
331
11
  0
LAYOUT
  5
DA
102
{ACAD_REACTORS
330
C2
102
}
330
C2
100
AcDbPlotSettings
  1

  2
none_device
  4
ISO_A4_(210.00_x_297.00_MM)
  6

 40
7.5
 41
20.0
 42
7.5
 43
20.0
 44
210.0
 45
297.0
 46
0.0
 47
0.0
 48
0.0
 49
0.0
140
0.0
141
0.0
142
1.0
143
1.0
 70
   688
 72
     1
 73
     1
 74
     5
  7

 75
    16
 76
     0
 77
     2
 78
   300
147
1.0
148
0.0
149
0.0
100
AcDbLayout
  1
レイアウト 1
 70
     1
 71
     1
 10
-20.0
 20
-7.5
 11
277.0
 21
202.5
 12
0.0
 22
0.0
 32
0.0
 14
15.0979381443299
 24
17.31672394043528
 34
0.0
 15
241.9020618556701
 25
177.6832760595647
 35
0.0
146
0.0
 13
0.0
 23
0.0
 33
0.0
 16
1.0
 26
0.0
 36
0.0
 17
0.0
 27
1.0
 37
0.0
 76
     0
330
27
331
14A
  0
MATERIAL
  5
F6
102
{ACAD_REACTORS
330
F4
102
}
330
F4
100
AcDbMaterial
  1
ByBlock
 72
     1
 94
      127
  0
MATERIAL
  5
F5
102
{ACAD_REACTORS
330
F4
102
}
330
F4
100
AcDbMaterial
  1
ByLayer
 72
     1
 94
      127
  0
MATERIAL
  5
F7
102
{ACAD_REACTORS
330
F4
102
}
330
F4
100
AcDbMaterial
  1
Global
 72
     1
 94
      127
1001
ACAD
1070
    -1
1070
     3
1070
     0
1000

1071
        0
  0
MLEADERSTYLE
  5
FB
102
{ACAD_REACTORS
330
FA
102
}
330
FA
100
AcDbMLeaderStyle
179
     2
170
     2
171
     1
172
     0
 90
        2
 40
0.0
 41
0.0
173
     1
 91
-1056964608
340
14
 92
       -2
290
     1
 42
2.0
291
     1
 43
8.0
  3
Standard
341
0
 44
4.0
300

342
1F
174
     1
178
     6
175
     1
176
     0
 93
-1056964608
 45
4.0
292
     0
297
     0
 46
4.0
343
0
 94
-1056964608
 47
1.0
 49
1.0
140
1.0
293
     1
141
0.0
294
     1
177
     0
142
1.0
295
     0
296
     0
143
3.75
271
     0
272
     9
273
     9
298
     0
1001
ACAD_MLEADERVER
1070
     2
  0
MLINESTYLE
  5
F
102
{ACAD_REACTORS
330
E
102
}
330
E
100
AcDbMlineStyle
  2
STANDARD
 70
     0
  3

 62
   256
 51
90.0
 52
90.0
 71
     2
 49
0.5
 62
   256
  6
BYLAYER
 49
-0.5
 62
   256
  6
BYLAYER
  0
SCALE
  5
C9
102
{ACAD_REACTORS
330
C8
102
}
330
C8
100
AcDbScale
 70
     0
300
1:1
140
1.0
141
1.0
290
     1
  0
SCALE
  5
CA
102
{ACAD_REACTORS
330
C8
102
}
330
C8
100
AcDbScale
 70
     0
300
1:2
140
1.0
141
2.0
290
     0
  0
SCALE
  5
CB
102
{ACAD_REACTORS
330
C8
102
}
330
C8
100
AcDbScale
 70
     0
300
1:4
140
1.0
141
4.0
290
     0
  0
SCALE
  5
CC
102
{ACAD_REACTORS
330
C8
102
}
330
C8
100
AcDbScale
 70
     0
300
1:5
140
1.0
141
5.0
290
     0
  0
SCALE
  5
CD
102
{ACAD_REACTORS
330
C8
102
}
330
C8
100
AcDbScale
 70
     0
300
1:8
140
1.0
141
8.0
290
     0
  0
SCALE
  5
CE
102
{ACAD_REACTORS
330
C8
102
}
330
C8
100
AcDbScale
 70
     0
300
1:10
140
1.0
141
10.0
290
     0
  0
SCALE
  5
CF
102
{ACAD_REACTORS
330
C8
102
}
330
C8
100
AcDbScale
 70
     0
300
1:16
140
1.0
141
16.0
290
     0
  0
SCALE
  5
D0
102
{ACAD_REACTORS
330
C8
102
}
330
C8
100
AcDbScale
 70
     0
300
1:20
140
1.0
141
20.0
290
     0
  0
SCALE
  5
D1
102
{ACAD_REACTORS
330
C8
102
}
330
C8
100
AcDbScale
 70
     0
300
1:30
140
1.0
141
30.0
290
     0
  0
SCALE
  5
D2
102
{ACAD_REACTORS
330
C8
102
}
330
C8
100
AcDbScale
 70
     0
300
1:40
140
1.0
141
40.0
290
     0
  0
SCALE
  5
D3
102
{ACAD_REACTORS
330
C8
102
}
330
C8
100
AcDbScale
 70
     0
300
1:50
140
1.0
141
50.0
290
     0
  0
SCALE
  5
D4
102
{ACAD_REACTORS
330
C8
102
}
330
C8
100
AcDbScale
 70
     0
300
1:100
140
1.0
141
100.0
290
     0
  0
SCALE
  5
D5
102
{ACAD_REACTORS
330
C8
102
}
330
C8
100
AcDbScale
 70
     0
300
2:1
140
2.0
141
1.0
290
     0
  0
SCALE
  5
D6
102
{ACAD_REACTORS
330
C8
102
}
330
C8
100
AcDbScale
 70
     0
300
4:1
140
4.0
141
1.0
290
     0
  0
SCALE
  5
D7
102
{ACAD_REACTORS
330
C8
102
}
330
C8
100
AcDbScale
 70
     0
300
8:1
140
8.0
141
1.0
290
     0
  0
SCALE
  5
D8
102
{ACAD_REACTORS
330
C8
102
}
330
C8
100
AcDbScale
 70
     0
300
10:1
140
10.0
141
1.0
290
     0
  0
SCALE
  5
D9
102
{ACAD_REACTORS
330
C8
102
}
330
C8
100
AcDbScale
 70
     0
300
100:1
140
100.0
141
1.0
290
     0
  0
TABLESTYLE
  5
F9
102
{ACAD_REACTORS
330
F8
102
}
102
{ACAD_XDICTIONARY
360
736
102
}
330
F8
100
AcDbTableStyle
  3
Standard
 70
     0
 71
     0
 40
1.5
 41
1.5
280
     0
281
     0
  7
STANDARD
140
4.5
170
     2
 62
     0
 63
   257
283
     0
 90
      512
 91
        0
  1

274
    -2
284
     1
 64
     0
275
    -2
285
     1
 65
     0
276
    -2
286
     1
 66
     0
277
    -2
287
     1
 67
     0
278
    -2
288
     1
 68
     0
279
    -2
289
     1
 69
     0
  7
STANDARD
140
6.0
170
     5
 62
     0
 63
   257
283
     0
 90
      512
 91
        0
  1

274
    -2
284
     1
 64
     0
275
    -2
285
     1
 65
     0
276
    -2
286
     1
 66
     0
277
    -2
287
     1
 67
     0
278
    -2
288
     1
 68
     0
279
    -2
289
     1
 69
     0
  7
STANDARD
140
4.5
170
     5
 62
     0
 63
   257
283
     0
 90
      512
 91
        0
  1

274
    -2
284
     1
 64
     0
275
    -2
285
     1
 65
     0
276
    -2
286
     1
 66
     0
277
    -2
287
     1
 67
     0
278
    -2
288
     1
 68
     0
279
    -2
289
     1
 69
     0
  0
VISUALSTYLE
  5
E0
102
{ACAD_REACTORS
330
DB
102
}
330
DB
100
AcDbVisualStyle
  2
2dWireframe
 70
     4
177
     3
291
     0
 70
    58
 90
        0
176
     1
 90
        2
176
     1
 90
        0
176
     1
 90
        0
176
     1
 40
0.6
176
     1
 40
30.0
176
     1
 62
     7
420
 16777215
176
     1
 90
        1
176
     1
 90
        4
176
     1
 62
     7
176
     1
 62
   257
176
     1
 90
        1
176
     1
 90
        1
176
     1
 40
1.0
176
     1
 90
        0
176
     1
 62
   257
176
     1
 40
1.0
176
     1
 90
        1
176
     1
 90
        6
176
     1
 90
        2
176
     1
 62
     7
176
     1
 90
        5
176
     1
 90
        0
176
     1
 90
        0
176
     1
290
     0
176
     1
 90
        1
176
     1
 40
0.0
176
     1
 90
        0
176
     1
290
     1
176
     1
290
     1
176
     1
290
     0
176
     1
290
     0
176
     1
290
     0
176
     1
290
     0
176
     1
290
     0
176
     1
290
     0
176
     1
290
     0
176
     1
 90
       50
176
     1
 40
0.0
176
     1
 40
1.0
176
     1
 90
        0
176
     1
 62
    18
420
        0
176
     1
 90
       50
176
     1
 90
        3
176
     1
 62
     5
420
      255
176
     1
290
     0
176
     1
 90
       50
176
     1
 90
       50
176
     1
 90
       50
176
     1
290
     0
176
     1
 90
       50
176
     1
 62
   256
176
     0
 40
1.0
176
     0
 90
        2
176
     1
  1
strokes_ogs.tif
176
     1
290
     0
176
     1
 40
1.0
176
     1
 40
1.0
176
     1
  0
VISUALSTYLE
  5
E3
102
{ACAD_REACTORS
330
DB
102
}
330
DB
100
AcDbVisualStyle
  2
Basic
 70
     7
177
     3
291
     1
 70
    58
 90
        1
176
     1
 90
        0
176
     1
 90
        1
176
     1
 90
        0
176
     1
 40
0.6
176
     1
 40
30.0
176
     1
 62
     7
420
 16777215
176
     1
 90
        0
176
     1
 90
        4
176
     1
 62
     7
176
     1
 62
   257
176
     1
 90
        1
176
     1
 90
        1
176
     1
 40
1.0
176
     1
 90
        8
176
     1
 62
     7
176
     1
 40
1.0
176
     1
 90
        1
176
     1
 90
        6
176
     1
 90
        2
176
     1
 62
     7
176
     1
 90
        5
176
     1
 90
        0
176
     1
 90
        0
176
     1
290
     0
176
     1
 90
        1
176
     1
 40
0.0
176
     1
 90
        0
176
     1
290
     0
176
     1
290
     1
176
     1
290
     1
176
     1
290
     0
176
     1
290
     0
176
     1
290
     0
176
     1
290
     0
176
     1
290
     0
176
     1
290
     0
176
     1
 90
       50
176
     1
 40
0.0
176
     1
 40
1.0
176
     1
 90
        0
176
     1
 62
    18
420
        0
176
     1
 90
       50
176
     1
 90
        3
176
     1
 62
     5
420
      255
176
     1
290
     0
176
     1
 90
       50
176
     1
 90
       50
176
     1
 90
       50
176
     1
290
     0
176
     1
 90
       50
176
     1
 62
   256
176
     0
 40
1.0
176
     0
 90
        2
176
     1
  1
strokes_ogs.tif
176
     1
290
     0
176
     1
 40
1.0
176
     1
 40
1.0
176
     1
  0
VISUALSTYLE
  5
E7
102
{ACAD_REACTORS
330
DB
102
}
330
DB
100
AcDbVisualStyle
  2
Brighten
 70
    12
177
     3
291
     1
 70
    58
 90
        2
176
     1
 90
        2
176
     1
 90
        0
176
     1
 90
        0
176
     1
 40
0.6
176
     1
 40
30.0
176
     1
 62
     7
420
 16777215
176
     1
 90
        1
176
     1
 90
        4
176
     1
 62
     7
176
     1
 62
   257
176
     1
 90
        1
176
     1
 90
        1
176
     1
 40
1.0
176
     1
 90
        8
176
     1
 62
     7
176
     1
 40
1.0
176
     1
 90
        1
176
     1
 90
        6
176
     1
 90
        2
176
     1
 62
     7
176
     1
 90
        5
176
     1
 90
        0
176
     1
 90
        0
176
     1
290
     0
176
     1
 90
        1
176
     1
 40
50.0
176
     1
 90
        0
176
     1
290
     0
176
     1
290
     1
176
     1
290
     1
176
     1
290
     0
176
     1
290
     0
176
     1
290
     0
176
     1
290
     0
176
     1
290
     0
176
     1
290
     0
176
     1
 90
       50
176
     1
 40
0.0
176
     1
 40
1.0
176
     1
 90
        0
176
     1
 62
    18
420
        0
176
     1
 90
       50
176
     1
 90
        3
176
     1
 62
     5
420
      255
176
     1
290
     0
176
     1
 90
       50
176
     1
 90
       50
176
     1
 90
       50
176
     1
290
     0
176
     1
 90
       50
176
     1
 62
   256
176
     0
 40
1.0
176
     0
 90
        2
176
     1
  1
strokes_ogs.tif
176
     1
290
     0
176
     1
 40
1.0
176
     1
 40
1.0
176
     1
  0
VISUALSTYLE
  5
EB
102
{ACAD_REACTORS
330
DB
102
}
330
DB
100
AcDbVisualStyle
  2
ColorChange
 70
    16
177
     3
291
     1
 70
    58
 90
        2
176
     1
 90
        2
176
     1
 90
        3
176
     1
 90
        0
176
     1
 40
0.6
176
     1
 40
30.0
176
     1
 62
     8
420
  8421504
176
     1
 90
        1
176
     1
 90
        4
176
     1
 62
     7
176
     1
 62
   257
176
     1
 90
        1
176
     1
 90
        1
176
     1
 40
1.0
176
     1
 90
        8
176
     1
 62
     8
420
  8421504
176
     1
 40
1.0
176
     1
 90
        1
176
     1
 90
        6
176
     1
 90
        2
176
     1
 62
     7
176
     1
 90
        5
176
     1
 90
        0
176
     1
 90
        0
176
     1
290
     0
176
     1
 90
        1
176
     1
 40
0.0
176
     1
 90
        0
176
     1
290
     0
176
     1
290
     1
176
     1
290
     1
176
     1
290
     0
176
     1
290
     0
176
     1
290
     0
176
     1
290
     0
176
     1
290
     0
176
     1
290
     0
176
     1
 90
       50
176
     1
 40
0.0
176
     1
 40
1.0
176
     1
 90
        0
176
     1
 62
    18
420
        0
176
     1
 90
       50
176
     1
 90
        3
176
     1
 62
     5
420
      255
176
     1
290
     0
176
     1
 90
       50
176
     1
 90
       50
176
     1
 90
       50
176
     1
290
     0
176
     1
 90
       50
176
     1
 62
   256
176
     0
 40
1.0
176
     0
 90
        2
176
     1
  1
strokes_ogs.tif
176
     1
290
     0
176
     1
 40
1.0
176
     1
 40
1.0
176
     1
  0
VISUALSTYLE
  5
E5
102
{ACAD_REACTORS
330
DB
102
}
330
DB
100
AcDbVisualStyle
  2
Conceptual
 70
     9
177
     3
291
     0
 70
    58
 90
        3
176
     1
 90
        2
176
     1
 90
        0
176
     1
 90
        0
176
     1
 40
0.6
176
     1
 40
30.0
176
     1
 62
     7
420
 16777215
176
     1
 90
        2
176
     1
 90
        2
176
     1
 62
     7
176
     1
 62
   257
176
     1
 90
        1
176
     1
 90
        1
176
     1
 40
40.0
176
     1
 90
        8
176
     1
 62
     7
176
     1
 40
1.0
176
     1
 90
        1
176
     1
 90
        6
176
     1
 90
        2
176
     1
 62
     7
176
     1
 90
        3
176
     1
 90
        0
176
     1
 90
        0
176
     1
290
     0
176
     1
 90
        1
176
     1
 40
0.0
176
     1
 90
        0
176
     1
290
     0
176
     1
290
     1
176
     1
290
     1
176
     1
290
     0
176
     1
290
     0
176
     1
290
     0
176
     1
290
     0
176
     1
290
     0
176
     1
290
     0
176
     1
 90
       50
176
     1
 40
0.0
176
     1
 40
1.0
176
     1
 90
        0
176
     1
 62
    18
420
        0
176
     1
 90
       50
176
     1
 90
        3
176
     1
 62
     5
420
      255
176
     1
290
     0
176
     1
 90
       50
176
     1
 90
       50
176
     1
 90
       50
176
     1
290
     0
176
     1
 90
       50
176
     1
 62
   256
176
     0
 40
1.0
176
     0
 90
        2
176
     1
  1
strokes_ogs.tif
176
     1
290
     0
176
     1
 40
1.0
176
     1
 40
1.0
176
     1
  0
VISUALSTYLE
  5
E6
102
{ACAD_REACTORS
330
DB
102
}
330
DB
100
AcDbVisualStyle
  2
Dim
 70
    11
177
     3
291
     1
 70
    58
 90
        2
176
     1
 90
        2
176
     1
 90
        0
176
     1
 90
        0
176
     1
 40
0.6
176
     1
 40
30.0
176
     1
 62
     7
420
 16777215
176
     1
 90
        1
176
     1
 90
        4
176
     1
 62
     7
176
     1
 62
   257
176
     1
 90
        1
176
     1
 90
        1
176
     1
 40
1.0
176
     1
 90
        8
176
     1
 62
     7
176
     1
 40
1.0
176
     1
 90
        1
176
     1
 90
        6
176
     1
 90
        2
176
     1
 62
     7
176
     1
 90
        5
176
     1
 90
        0
176
     1
 90
        0
176
     1
290
     0
176
     1
 90
        1
176
     1
 40
-50.0
176
     1
 90
        0
176
     1
290
     0
176
     1
290
     1
176
     1
290
     1
176
     1
290
     0
176
     1
290
     0
176
     1
290
     0
176
     1
290
     0
176
     1
290
     0
176
     1
290
     0
176
     1
 90
       50
176
     1
 40
0.0
176
     1
 40
1.0
176
     1
 90
        0
176
     1
 62
    18
420
        0
176
     1
 90
       50
176
     1
 90
        3
176
     1
 62
     5
420
      255
176
     1
290
     0
176
     1
 90
       50
176
     1
 90
       50
176
     1
 90
       50
176
     1
290
     0
176
     1
 90
       50
176
     1
 62
   256
176
     0
 40
1.0
176
     0
 90
        2
176
     1
  1
strokes_ogs.tif
176
     1
290
     0
176
     1
 40
1.0
176
     1
 40
1.0
176
     1
  0
VISUALSTYLE
  5
EE
102
{ACAD_REACTORS
330
DB
102
}
330
DB
100
AcDbVisualStyle
  2
EdgeColorOff
 70
    22
177
     3
291
     1
 70
    58
 90
        2
176
     0
 90
        2
176
     0
 90
        0
176
     0
 90
        0
176
     0
 40
0.6
176
     0
 40
30.0
176
     0
 62
     7
420
 16777215
176
     0
 90
        1
176
     0
 90
        4
176
     0
 62
     7
176
     0
 62
   257
176
     0
 90
        1
176
     0
 90
        1
176
     0
 40
1.0
176
     0
 90
        8
176
     0
 62
     7
176
     0
 40
1.0
176
     0
 90
        1
176
     0
 90
        6
176
     0
 90
        2
176
     0
 62
     7
176
     0
 90
        5
176
     0
 90
        0
176
     0
 90
        0
176
     0
290
     0
176
     0
 90
        1
176
     0
 40
0.0
176
     0
 90
        0
176
     0
290
     0
176
     1
290
     1
176
     1
290
     1
176
     1
290
     0
176
     1
290
     0
176
     1
290
     0
176
     1
290
     0
176
     1
290
     0
176
     1
290
     0
176
     1
 90
       50
176
     1
 40
0.0
176
     1
 40
1.0
176
     1
 90
        0
176
     1
 62
    18
420
        0
176
     1
 90
       50
176
     1
 90
        3
176
     1
 62
     5
420
      255
176
     1
290
     0
176
     1
 90
       50
176
     1
 90
       50
176
     1
 90
       50
176
     1
290
     0
176
     1
 90
       50
176
     1
 62
   256
176
     0
 40
1.0
176
     0
 90
        2
176
     1
  1
strokes_ogs.tif
176
     1
290
     0
176
     1
 40
1.0
176
     1
 40
1.0
176
     1
  0
VISUALSTYLE
  5
EA
102
{ACAD_REACTORS
330
DB
102
}
330
DB
100
AcDbVisualStyle
  2
Facepattern
 70
    15
177
     3
291
     1
 70
    58
 90
        2
176
     1
 90
        2
176
     1
 90
        0
176
     1
 90
        0
176
     1
 40
0.6
176
     1
 40
30.0
176
     1
 62
     7
420
 16777215
176
     1
 90
        1
176
     1
 90
        4
176
     1
 62
     7
176
     1
 62
   257
176
     1
 90
        1
176
     1
 90
        1
176
     1
 40
1.0
176
     1
 90
        8
176
     1
 62
     7
176
     1
 40
1.0
176
     1
 90
        1
176
     1
 90
        6
176
     1
 90
        2
176
     1
 62
     7
176
     1
 90
        5
176
     1
 90
        0
176
     1
 90
        0
176
     1
290
     0
176
     1
 90
        1
176
     1
 40
0.0
176
     1
 90
        0
176
     1
290
     0
176
     1
290
     1
176
     1
290
     1
176
     1
290
     0
176
     1
290
     0
176
     1
290
     0
176
     1
290
     0
176
     1
290
     0
176
     1
290
     0
176
     1
 90
       50
176
     1
 40
0.0
176
     1
 40
1.0
176
     1
 90
        0
176
     1
 62
    18
420
        0
176
     1
 90
       50
176
     1
 90
        3
176
     1
 62
     5
420
      255
176
     1
290
     0
176
     1
 90
       50
176
     1
 90
       50
176
     1
 90
       50
176
     1
290
     0
176
     1
 90
       50
176
     1
 62
   256
176
     0
 40
1.0
176
     0
 90
        2
176
     1
  1
strokes_ogs.tif
176
     1
290
     0
176
     1
 40
1.0
176
     1
 40
1.0
176
     1
  0
VISUALSTYLE
  5
DC
102
{ACAD_REACTORS
330
DB
102
}
330
DB
100
AcDbVisualStyle
  2
Flat
 70
     0
177
     3
291
     1
 70
    58
 90
        2
176
     1
 90
        1
176
     1
 90
        1
176
     1
 90
        2
176
     1
 40
0.6
176
     1
 40
30.0
176
     1
 62
     7
420
 16777215
176
     1
 90
        0
176
     1
 90
        4
176
     1
 62
     7
176
     1
 62
   257
176
     1
 90
        1
176
     1
 90
        1
176
     1
 40
1.0
176
     1
 90
        8
176
     1
 62
     7
176
     1
 40
1.0
176
     1
 90
        1
176
     1
 90
        6
176
     1
 90
        2
176
     1
 62
     7
176
     1
 90
        5
176
     1
 90
        0
176
     1
 90
        0
176
     1
290
     0
176
     1
 90
       13
176
     1
 40
0.0
176
     1
 90
        0
176
     1
290
     0
176
     1
290
     1
176
     1
290
     1
176
     1
290
     0
176
     1
290
     0
176
     1
290
     0
176
     1
290
     0
176
     1
290
     0
176
     1
290
     0
176
     1
 90
       50
176
     1
 40
0.0
176
     1
 40
1.0
176
     1
 90
        0
176
     1
 62
    18
420
        0
176
     1
 90
       50
176
     1
 90
        3
176
     1
 62
     5
420
      255
176
     1
290
     0
176
     1
 90
       50
176
     1
 90
       50
176
     1
 90
       50
176
     1
290
     0
176
     1
 90
       50
176
     1
 62
   256
176
     0
 40
1.0
176
     0
 90
        2
176
     1
  1
strokes_ogs.tif
176
     1
290
     0
176
     1
 40
1.0
176
     1
 40
1.0
176
     1
  0
VISUALSTYLE
  5
DD
102
{ACAD_REACTORS
330
DB
102
}
330
DB
100
AcDbVisualStyle
  2
FlatWithEdges
 70
     1
177
     3
291
     1
 70
    58
 90
        2
176
     1
 90
        1
176
     1
 90
        1
176
     1
 90
        2
176
     1
 40
0.6
176
     1
 40
30.0
176
     1
 62
     7
420
 16777215
176
     1
 90
        1
176
     1
 90
        4
176
     1
 62
     7
176
     1
 62
   257
176
     1
 90
        1
176
     1
 90
        1
176
     1
 40
1.0
176
     1
 90
        0
176
     1
 62
   257
176
     1
 40
1.0
176
     1
 90
        1
176
     1
 90
        6
176
     1
 90
        2
176
     1
 62
     7
176
     1
 90
        5
176
     1
 90
        0
176
     1
 90
        0
176
     1
290
     0
176
     1
 90
       13
176
     1
 40
0.0
176
     1
 90
        0
176
     1
290
     0
176
     1
290
     1
176
     1
290
     1
176
     1
290
     0
176
     1
290
     0
176
     1
290
     0
176
     1
290
     0
176
     1
290
     0
176
     1
290
     0
176
     1
 90
       50
176
     1
 40
0.0
176
     1
 40
1.0
176
     1
 90
        0
176
     1
 62
    18
420
        0
176
     1
 90
       50
176
     1
 90
        3
176
     1
 62
     5
420
      255
176
     1
290
     0
176
     1
 90
       50
176
     1
 90
       50
176
     1
 90
       50
176
     1
290
     0
176
     1
 90
       50
176
     1
 62
   256
176
     0
 40
1.0
176
     0
 90
        2
176
     1
  1
strokes_ogs.tif
176
     1
290
     0
176
     1
 40
1.0
176
     1
 40
1.0
176
     1
  0
VISUALSTYLE
  5
DE
102
{ACAD_REACTORS
330
DB
102
}
330
DB
100
AcDbVisualStyle
  2
Gouraud
 70
     2
177
     3
291
     1
 70
    58
 90
        2
176
     1
 90
        2
176
     1
 90
        1
176
     1
 90
        2
176
     1
 40
0.6
176
     1
 40
30.0
176
     1
 62
     7
420
 16777215
176
     1
 90
        0
176
     1
 90
        4
176
     1
 62
     7
176
     1
 62
   257
176
     1
 90
        1
176
     1
 90
        1
176
     1
 40
1.0
176
     1
 90
        0
176
     1
 62
     7
176
     1
 40
1.0
176
     1
 90
        1
176
     1
 90
        6
176
     1
 90
        2
176
     1
 62
     7
176
     1
 90
        5
176
     1
 90
        0
176
     1
 90
        0
176
     1
290
     0
176
     1
 90
       13
176
     1
 40
0.0
176
     1
 90
        0
176
     1
290
     0
176
     1
290
     1
176
     1
290
     1
176
     1
290
     0
176
     1
290
     0
176
     1
290
     0
176
     1
290
     0
176
     1
290
     0
176
     1
290
     0
176
     1
 90
       50
176
     1
 40
0.0
176
     1
 40
1.0
176
     1
 90
        0
176
     1
 62
    18
420
        0
176
     1
 90
       50
176
     1
 90
        3
176
     1
 62
     5
420
      255
176
     1
290
     0
176
     1
 90
       50
176
     1
 90
       50
176
     1
 90
       50
176
     1
290
     0
176
     1
 90
       50
176
     1
 62
   256
176
     0
 40
1.0
176
     0
 90
        2
176
     1
  1
strokes_ogs.tif
176
     1
290
     0
176
     1
 40
1.0
176
     1
 40
1.0
176
     1
  0
VISUALSTYLE
  5
DF
102
{ACAD_REACTORS
330
DB
102
}
330
DB
100
AcDbVisualStyle
  2
GouraudWithEdges
 70
     3
177
     3
291
     1
 70
    58
 90
        2
176
     1
 90
        2
176
     1
 90
        1
176
     1
 90
        2
176
     1
 40
0.6
176
     1
 40
30.0
176
     1
 62
     7
420
 16777215
176
     1
 90
        1
176
     1
 90
        4
176
     1
 62
     7
176
     1
 62
   257
176
     1
 90
        1
176
     1
 90
        1
176
     1
 40
1.0
176
     1
 90
        0
176
     1
 62
   257
176
     1
 40
1.0
176
     1
 90
        1
176
     1
 90
        6
176
     1
 90
        2
176
     1
 62
     7
176
     1
 90
        5
176
     1
 90
        0
176
     1
 90
        0
176
     1
290
     0
176
     1
 90
       13
176
     1
 40
0.0
176
     1
 90
        0
176
     1
290
     0
176
     1
290
     1
176
     1
290
     1
176
     1
290
     0
176
     1
290
     0
176
     1
290
     0
176
     1
290
     0
176
     1
290
     0
176
     1
290
     0
176
     1
 90
       50
176
     1
 40
0.0
176
     1
 40
1.0
176
     1
 90
        0
176
     1
 62
    18
420
        0
176
     1
 90
       50
176
     1
 90
        3
176
     1
 62
     5
420
      255
176
     1
290
     0
176
     1
 90
       50
176
     1
 90
       50
176
     1
 90
       50
176
     1
290
     0
176
     1
 90
       50
176
     1
 62
   256
176
     0
 40
1.0
176
     0
 90
        2
176
     1
  1
strokes_ogs.tif
176
     1
290
     0
176
     1
 40
1.0
176
     1
 40
1.0
176
     1
  0
VISUALSTYLE
  5
E2
102
{ACAD_REACTORS
330
DB
102
}
330
DB
100
AcDbVisualStyle
  2
Hidden
 70
     6
177
     3
291
     0
 70
    58
 90
        1
176
     1
 90
        2
176
     1
 90
        2
176
     1
 90
        0
176
     1
 40
0.6
176
     1
 40
30.0
176
     1
 62
     7
420
 16777215
176
     1
 90
        2
176
     1
 90
        2
176
     1
 62
     7
176
     1
 62
   257
176
     1
 90
        2
176
     1
 90
        1
176
     1
 40
40.0
176
     1
 90
        0
176
     1
 62
   257
176
     1
 40
1.0
176
     1
 90
        1
176
     1
 90
        6
176
     1
 90
        2
176
     1
 62
     7
176
     1
 90
        3
176
     1
 90
        0
176
     1
 90
        0
176
     1
290
     0
176
     1
 90
        1
176
     1
 40
0.0
176
     1
 90
        0
176
     1
290
     0
176
     1
290
     1
176
     1
290
     1
176
     1
290
     0
176
     1
290
     0
176
     1
290
     0
176
     1
290
     0
176
     1
290
     0
176
     1
290
     0
176
     1
 90
       50
176
     1
 40
0.0
176
     1
 40
1.0
176
     1
 90
        0
176
     1
 62
    18
420
        0
176
     1
 90
       50
176
     1
 90
        3
176
     1
 62
     5
420
      255
176
     1
290
     0
176
     1
 90
       50
176
     1
 90
       50
176
     1
 90
       50
176
     1
290
     0
176
     1
 90
       50
176
     1
 62
   256
176
     0
 40
1.0
176
     0
 90
        2
176
     1
  1
strokes_ogs.tif
176
     1
290
     0
176
     1
 40
1.0
176
     1
 40
1.0
176
     1
  0
VISUALSTYLE
  5
EC
102
{ACAD_REACTORS
330
DB
102
}
330
DB
100
AcDbVisualStyle
  2
JitterOff
 70
    20
177
     3
291
     1
 70
    58
 90
        2
176
     0
 90
        2
176
     0
 90
        0
176
     0
 90
        0
176
     0
 40
0.6
176
     0
 40
30.0
176
     0
 62
     7
420
 16777215
176
     0
 90
        1
176
     0
 90
        4
176
     0
 62
     7
176
     0
 62
   257
176
     0
 90
        1
176
     0
 90
        1
176
     0
 40
1.0
176
     0
 90
       10
176
     0
 62
     7
176
     0
 40
1.0
176
     0
 90
        1
176
     0
 90
        6
176
     0
 90
        2
176
     0
 62
     7
176
     0
 90
        5
176
     0
 90
        0
176
     0
 90
        0
176
     0
290
     0
176
     0
 90
        1
176
     0
 40
0.0
176
     0
 90
        0
176
     0
290
     0
176
     1
290
     1
176
     1
290
     1
176
     1
290
     0
176
     1
290
     0
176
     1
290
     0
176
     1
290
     0
176
     1
290
     0
176
     1
290
     0
176
     1
 90
       50
176
     1
 40
0.0
176
     1
 40
1.0
176
     1
 90
        0
176
     1
 62
    18
420
        0
176
     1
 90
       50
176
     1
 90
        3
176
     1
 62
     5
420
      255
176
     1
290
     0
176
     1
 90
       50
176
     1
 90
       50
176
     1
 90
       50
176
     1
290
     0
176
     1
 90
       50
176
     1
 62
   256
176
     0
 40
1.0
176
     0
 90
        2
176
     1
  1
strokes_ogs.tif
176
     1
290
     0
176
     1
 40
1.0
176
     1
 40
1.0
176
     1
  0
VISUALSTYLE
  5
E9
102
{ACAD_REACTORS
330
DB
102
}
330
DB
100
AcDbVisualStyle
  2
Linepattern
 70
    14
177
     3
291
     1
 70
    58
 90
        2
176
     1
 90
        2
176
     1
 90
        0
176
     1
 90
        0
176
     1
 40
0.6
176
     1
 40
30.0
176
     1
 62
     7
420
 16777215
176
     1
 90
        1
176
     1
 90
        4
176
     1
 62
     7
176
     1
 62
   257
176
     1
 90
        7
176
     1
 90
        7
176
     1
 40
1.0
176
     1
 90
        8
176
     1
 62
     7
176
     1
 40
1.0
176
     1
 90
        1
176
     1
 90
        6
176
     1
 90
        2
176
     1
 62
     7
176
     1
 90
        5
176
     1
 90
        0
176
     1
 90
        0
176
     1
290
     0
176
     1
 90
        1
176
     1
 40
0.0
176
     1
 90
        0
176
     1
290
     0
176
     1
290
     1
176
     1
290
     1
176
     1
290
     0
176
     1
290
     0
176
     1
290
     0
176
     1
290
     0
176
     1
290
     0
176
     1
290
     0
176
     1
 90
       50
176
     1
 40
0.0
176
     1
 40
1.0
176
     1
 90
        0
176
     1
 62
    18
420
        0
176
     1
 90
       50
176
     1
 90
        3
176
     1
 62
     5
420
      255
176
     1
290
     0
176
     1
 90
       50
176
     1
 90
       50
176
     1
 90
       50
176
     1
290
     0
176
     1
 90
       50
176
     1
 62
   256
176
     0
 40
1.0
176
     0
 90
        2
176
     1
  1
strokes_ogs.tif
176
     1
290
     0
176
     1
 40
1.0
176
     1
 40
1.0
176
     1
  0
VISUALSTYLE
  5
ED
102
{ACAD_REACTORS
330
DB
102
}
330
DB
100
AcDbVisualStyle
  2
OverhangOff
 70
    21
177
     3
291
     1
 70
    58
 90
        2
176
     0
 90
        2
176
     0
 90
        0
176
     0
 90
        0
176
     0
 40
0.6
176
     0
 40
30.0
176
     0
 62
     7
420
 16777215
176
     0
 90
        1
176
     0
 90
        4
176
     0
 62
     7
176
     0
 62
   257
176
     0
 90
        1
176
     0
 90
        1
176
     0
 40
1.0
176
     0
 90
        9
176
     0
 62
     7
176
     0
 40
1.0
176
     0
 90
        1
176
     0
 90
        6
176
     0
 90
        2
176
     0
 62
     7
176
     0
 90
        5
176
     0
 90
        0
176
     0
 90
        0
176
     0
290
     0
176
     0
 90
        1
176
     0
 40
0.0
176
     0
 90
        0
176
     0
290
     0
176
     1
290
     1
176
     1
290
     1
176
     1
290
     0
176
     1
290
     0
176
     1
290
     0
176
     1
290
     0
176
     1
290
     0
176
     1
290
     0
176
     1
 90
       50
176
     1
 40
0.0
176
     1
 40
1.0
176
     1
 90
        0
176
     1
 62
    18
420
        0
176
     1
 90
       50
176
     1
 90
        3
176
     1
 62
     5
420
      255
176
     1
290
     0
176
     1
 90
       50
176
     1
 90
       50
176
     1
 90
       50
176
     1
290
     0
176
     1
 90
       50
176
     1
 62
   256
176
     0
 40
1.0
176
     0
 90
        2
176
     1
  1
strokes_ogs.tif
176
     1
290
     0
176
     1
 40
1.0
176
     1
 40
1.0
176
     1
  0
VISUALSTYLE
  5
E4
102
{ACAD_REACTORS
330
DB
102
}
330
DB
100
AcDbVisualStyle
  2
Realistic
 70
     8
177
     3
291
     0
 70
    58
 90
        2
176
     1
 90
        3
176
     1
 90
        0
176
     1
 90
        2
176
     1
 40
0.6
176
     1
 40
30.0
176
     1
 62
     7
420
 16777215
176
     1
 90
        0
176
     1
 90
        0
176
     1
 62
     7
176
     1
 62
   257
176
     1
 90
        1
176
     1
 90
        1
176
     1
 40
1.0
176
     1
 90
        8
176
     1
 62
   257
176
     1
 40
1.0
176
     1
 90
        1
176
     1
 90
        6
176
     1
 90
        2
176
     1
 62
     7
176
     1
 90
        3
176
     1
 90
        0
176
     1
 90
        0
176
     1
290
     0
176
     1
 90
       13
176
     1
 40
0.0
176
     1
 90
        0
176
     1
290
     0
176
     1
290
     1
176
     1
290
     1
176
     1
290
     0
176
     1
290
     0
176
     1
290
     0
176
     1
290
     0
176
     1
290
     0
176
     1
290
     0
176
     1
 90
       50
176
     1
 40
0.0
176
     1
 40
1.0
176
     1
 90
        0
176
     1
 62
    18
420
        0
176
     1
 90
       50
176
     1
 90
        3
176
     1
 62
     5
420
      255
176
     1
290
     0
176
     1
 90
       50
176
     1
 90
       50
176
     1
 90
       50
176
     1
290
     0
176
     1
 90
       50
176
     1
 62
   256
176
     0
 40
1.0
176
     0
 90
        2
176
     1
  1
strokes_ogs.tif
176
     1
290
     0
176
     1
 40
1.0
176
     1
 40
1.0
176
     1
  0
VISUALSTYLE
  5
F3
102
{ACAD_REACTORS
330
DB
102
}
330
DB
100
AcDbVisualStyle
  2
Shaded
 70
    27
177
     3
291
     0
 70
    58
 90
        2
176
     1
 90
        2
176
     1
 90
        1
176
     1
 90
        2
176
     1
 40
0.6
176
     1
 40
30.0
176
     1
 62
     7
420
 16777215
176
     1
 90
        0
176
     1
 90
        4
176
     1
 62
     7
176
     1
 62
   257
176
     1
 90
        1
176
     1
 90
        1
176
     1
 40
1.0
176
     1
 90
        8
176
     1
 62
   257
176
     1
 40
1.0
176
     1
 90
        1
176
     1
 90
        6
176
     1
 90
        2
176
     1
 62
   251
420
  5131854
176
     1
 90
        3
176
     1
 90
        0
176
     1
 90
        0
176
     1
290
     0
176
     1
 90
        5
176
     1
 40
0.0
176
     1
 90
        0
176
     1
290
     0
176
     1
290
     1
176
     1
290
     1
176
     1
290
     0
176
     1
290
     0
176
     1
290
     0
176
     1
290
     0
176
     1
290
     0
176
     1
290
     0
176
     1
 90
       50
176
     1
 40
0.0
176
     1
 40
1.0
176
     1
 90
        0
176
     1
 62
    18
420
        0
176
     1
 90
       50
176
     1
 90
        3
176
     1
 62
     5
420
      255
176
     1
290
     0
176
     1
 90
       50
176
     1
 90
       50
176
     1
 90
       50
176
     1
290
     0
176
     1
 90
       50
176
     1
 62
   256
176
     0
 40
1.0
176
     0
 90
        2
176
     1
  1
strokes_ogs.tif
176
     1
290
     0
176
     1
 40
1.0
176
     1
 40
1.0
176
     1
  0
VISUALSTYLE
  5
F2
102
{ACAD_REACTORS
330
DB
102
}
330
DB
100
AcDbVisualStyle
  2
Shaded with edges
 70
    26
177
     3
291
     0
 70
    58
 90
        2
176
     1
 90
        2
176
     1
 90
        1
176
     1
 90
        2
176
     1
 40
0.6
176
     1
 40
30.0
176
     1
 62
     7
420
 16777215
176
     1
 90
        1
176
     1
 90
       10
176
     1
 62
     7
176
     1
 62
   257
176
     1
 90
        2
176
     1
 90
        1
176
     1
 40
1.0
176
     1
 90
        8
176
     1
 62
   257
176
     1
 40
1.0
176
     1
 90
        1
176
     1
 90
        6
176
     1
 90
        2
176
     1
 62
     7
176
     1
 90
        3
176
     1
 90
        0
176
     1
 90
        0
176
     1
290
     0
176
     1
 90
        5
176
     1
 40
0.0
176
     1
 90
        0
176
     1
290
     0
176
     1
290
     1
176
     1
290
     1
176
     1
290
     0
176
     1
290
     0
176
     1
290
     0
176
     1
290
     0
176
     1
290
     0
176
     1
290
     0
176
     1
 90
       50
176
     1
 40
0.0
176
     1
 40
1.0
176
     1
 90
        0
176
     1
 62
    18
420
        0
176
     1
 90
       50
176
     1
 90
        3
176
     1
 62
     5
420
      255
176
     1
290
     0
176
     1
 90
       50
176
     1
 90
       50
176
     1
 90
       50
176
     1
290
     0
176
     1
 90
       50
176
     1
 62
   256
176
     0
 40
1.0
176
     0
 90
        2
176
     1
  1
strokes_ogs.tif
176
     1
290
     0
176
     1
 40
1.0
176
     1
 40
1.0
176
     1
  0
VISUALSTYLE
  5
EF
102
{ACAD_REACTORS
330
DB
102
}
330
DB
100
AcDbVisualStyle
  2
Shades of Gray
 70
    23
177
     3
291
     0
 70
    58
 90
        2
176
     1
 90
        2
176
     1
 90
        3
176
     1
 90
        0
176
     1
 40
0.6
176
     1
 40
30.0
176
     1
 62
     7
420
 16777215
176
     1
 90
        2
176
     1
 90
        2
176
     1
 62
     7
176
     1
 62
     7
176
     1
 90
        1
176
     1
 90
        1
176
     1
 40
40.0
176
     1
 90
        8
176
     1
 62
     7
176
     1
 40
1.0
176
     1
 90
        1
176
     1
 90
        6
176
     1
 90
        2
176
     1
 62
     7
176
     1
 90
        3
176
     1
 90
        0
176
     1
 90
        0
176
     1
290
     0
176
     1
 90
        1
176
     1
 40
0.0
176
     1
 90
        0
176
     1
290
     0
176
     1
290
     1
176
     1
290
     1
176
     1
290
     0
176
     1
290
     0
176
     1
290
     0
176
     1
290
     0
176
     1
290
     0
176
     1
290
     0
176
     1
 90
       50
176
     1
 40
0.0
176
     1
 40
1.0
176
     1
 90
        0
176
     1
 62
    18
420
        0
176
     1
 90
       50
176
     1
 90
        3
176
     1
 62
     5
420
      255
176
     1
290
     0
176
     1
 90
       50
176
     1
 90
       50
176
     1
 90
       50
176
     1
290
     0
176
     1
 90
       50
176
     1
 62
   256
176
     0
 40
1.0
176
     0
 90
        2
176
     1
  1
strokes_ogs.tif
176
     1
290
     0
176
     1
 40
1.0
176
     1
 40
1.0
176
     1
  0
VISUALSTYLE
  5
F0
102
{ACAD_REACTORS
330
DB
102
}
330
DB
100
AcDbVisualStyle
  2
Sketchy
 70
    24
177
     3
291
     0
 70
    58
 90
        1
176
     1
 90
        2
176
     1
 90
        2
176
     1
 90
        0
176
     1
 40
0.6
176
     1
 40
30.0
176
     1
 62
     7
420
 16777215
176
     1
 90
        2
176
     1
 90
        2
176
     1
 62
     7
176
     1
 62
     7
176
     1
 90
        1
176
     1
 90
        1
176
     1
 40
40.0
176
     1
 90
       11
176
     1
 62
     7
176
     1
 40
1.0
176
     1
 90
        1
176
     1
 90
        6
176
     1
 90
        2
176
     1
 62
     7
176
     1
 90
        6
176
     1
 90
        0
176
     1
 90
        0
176
     1
290
     0
176
     1
 90
        1
176
     1
 40
0.0
176
     1
 90
        0
176
     1
290
     0
176
     1
290
     1
176
     1
290
     1
176
     1
290
     0
176
     1
290
     0
176
     1
290
     0
176
     1
290
     0
176
     1
290
     0
176
     1
290
     0
176
     1
 90
       50
176
     1
 40
0.0
176
     1
 40
1.0
176
     1
 90
        0
176
     1
 62
    18
420
        0
176
     1
 90
       50
176
     1
 90
        3
176
     1
 62
     5
420
      255
176
     1
290
     0
176
     1
 90
       50
176
     1
 90
       50
176
     1
 90
       50
176
     1
290
     0
176
     1
 90
       50
176
     1
 62
   256
176
     0
 40
1.0
176
     0
 90
        2
176
     1
  1
strokes_ogs.tif
176
     1
290
     0
176
     1
 40
1.0
176
     1
 40
1.0
176
     1
  0
VISUALSTYLE
  5
E8
102
{ACAD_REACTORS
330
DB
102
}
330
DB
100
AcDbVisualStyle
  2
Thicken
 70
    13
177
     3
291
     1
 70
    58
 90
        2
176
     1
 90
        2
176
     1
 90
        0
176
     1
 90
        0
176
     1
 40
0.6
176
     1
 40
30.0
176
     1
 62
     7
420
 16777215
176
     1
 90
        1
176
     1
 90
        4
176
     1
 62
     7
176
     1
 62
   257
176
     1
 90
        1
176
     1
 90
        1
176
     1
 40
1.0
176
     1
 90
       12
176
     1
 62
     7
176
     1
 40
1.0
176
     1
 90
        1
176
     1
 90
        6
176
     1
 90
        2
176
     1
 62
     7
176
     1
 90
        5
176
     1
 90
        0
176
     1
 90
        0
176
     1
290
     0
176
     1
 90
        1
176
     1
 40
0.0
176
     1
 90
        0
176
     1
290
     0
176
     1
290
     1
176
     1
290
     1
176
     1
290
     0
176
     1
290
     0
176
     1
290
     0
176
     1
290
     0
176
     1
290
     0
176
     1
290
     0
176
     1
 90
       50
176
     1
 40
0.0
176
     1
 40
1.0
176
     1
 90
        0
176
     1
 62
    18
420
        0
176
     1
 90
       50
176
     1
 90
        3
176
     1
 62
     5
420
      255
176
     1
290
     0
176
     1
 90
       50
176
     1
 90
       50
176
     1
 90
       50
176
     1
290
     0
176
     1
 90
       50
176
     1
 62
   256
176
     0
 40
1.0
176
     0
 90
        2
176
     1
  1
strokes_ogs.tif
176
     1
290
     0
176
     1
 40
1.0
176
     1
 40
1.0
176
     1
  0
VISUALSTYLE
  5
E1
102
{ACAD_REACTORS
330
DB
102
}
330
DB
100
AcDbVisualStyle
  2
Wireframe
 70
     5
177
     3
291
     0
 70
    58
 90
        0
176
     1
 90
        2
176
     1
 90
        0
176
     1
 90
        0
176
     1
 40
0.6
176
     1
 40
30.0
176
     1
 62
     7
420
 16777215
176
     1
 90
        1
176
     1
 90
        4
176
     1
 62
     7
176
     1
 62
   257
176
     1
 90
        1
176
     1
 90
        1
176
     1
 40
1.0
176
     1
 90
        0
176
     1
 62
   257
176
     1
 40
1.0
176
     1
 90
        1
176
     1
 90
        6
176
     1
 90
        2
176
     1
 62
     7
176
     1
 90
        5
176
     1
 90
        0
176
     1
 90
        0
176
     1
290
     0
176
     1
 90
        1
176
     1
 40
0.0
176
     1
 90
        0
176
     1
290
     0
176
     1
290
     1
176
     1
290
     1
176
     1
290
     0
176
     1
290
     0
176
     1
290
     0
176
     1
290
     0
176
     1
290
     0
176
     1
290
     0
176
     1
 90
       50
176
     1
 40
0.0
176
     1
 40
1.0
176
     1
 90
        0
176
     1
 62
    18
420
        0
176
     1
 90
       50
176
     1
 90
        3
176
     1
 62
     5
420
      255
176
     1
290
     0
176
     1
 90
       50
176
     1
 90
       50
176
     1
 90
       50
176
     1
290
     0
176
     1
 90
       50
176
     1
 62
   256
176
     0
 40
1.0
176
     0
 90
        2
176
     1
  1
strokes_ogs.tif
176
     1
290
     0
176
     1
 40
1.0
176
     1
 40
1.0
176
     1
  0
VISUALSTYLE
  5
F1
102
{ACAD_REACTORS
330
DB
102
}
330
DB
100
AcDbVisualStyle
  2
X-Ray
 70
    25
177
     3
291
     0
 70
    58
 90
        2
176
     1
 90
        2
176
     1
 90
        1
176
     1
 90
        1
176
     1
 40
0.5
176
     1
 40
30.0
176
     1
 62
     7
420
 16777215
176
     1
 90
        1
176
     1
 90
        0
176
     1
 62
     7
176
     1
 62
   257
176
     1
 90
        1
176
     1
 90
        1
176
     1
 40
1.0
176
     1
 90
        8
176
     1
 62
     7
176
     1
 40
1.0
176
     1
 90
        1
176
     1
 90
        6
176
     1
 90
        2
176
     1
 62
     7
176
     1
 90
        3
176
     1
 90
        0
176
     1
 90
        0
176
     1
290
     0
176
     1
 90
       13
176
     1
 40
0.0
176
     1
 90
        0
176
     1
290
     0
176
     1
290
     1
176
     1
290
     1
176
     1
290
     0
176
     1
290
     0
176
     1
290
     0
176
     1
290
     0
176
     1
290
     0
176
     1
290
     0
176
     1
 90
       50
176
     1
 40
0.0
176
     1
 40
1.0
176
     1
 90
        0
176
     1
 62
    18
420
        0
176
     1
 90
       50
176
     1
 90
        3
176
     1
 62
     5
420
      255
176
     1
290
     0
176
     1
 90
       50
176
     1
 90
       50
176
     1
 90
       50
176
     1
290
     0
176
     1
 90
       50
176
     1
 62
   256
176
     0
 40
1.0
176
     0
 90
        2
176
     1
  1
strokes_ogs.tif
176
     1
290
     0
176
     1
 40
1.0
176
     1
 40
1.0
176
     1
  0
DICTIONARYVAR
  5
1C7
102
{ACAD_REACTORS
330
C3
102
}
330
C3
100
DictionaryVariables
280
     0
  1
1:100
  0
DICTIONARYVAR
  5
1C9
102
{ACAD_REACTORS
330
C3
102
}
330
C3
100
DictionaryVariables
280
     0
  1
Standard
  0
DICTIONARYVAR
  5
1C8
102
{ACAD_REACTORS
330
C3
102
}
330
C3
100
DictionaryVariables
280
     0
  1
Standard
  0
DICTIONARYVAR
  5
1CA
102
{ACAD_REACTORS
330
C3
102
}
330
C3
100
DictionaryVariables
280
     0
  1
0
  0
DICTIONARY
  5
736
330
F9
100
AcDbDictionary
280
     1
281
     1
  3
ACAD_ROUNDTRIP_2008_TABLESTYLE_CELLSTYLEMAP
360
737
  0
CELLSTYLEMAP
  5
737
102
{ACAD_REACTORS
330
736
102
}
330
736
100
AcDbCellStyleMap
 90
        3
300
CELLSTYLE
  1
TABLEFORMAT_BEGIN
 90
        5
170
     1
 91
        0
 92
    32768
 62
   257
 93
        1
300
CONTENTFORMAT
  1
CONTENTFORMAT_BEGIN
 90
        0
 91
        0
 92
      512
 93
        0
300

 40
0.0
140
1.0
 94
        5
 62
     0
340
1F
144
6.0
309
CONTENTFORMAT_END
171
     1
301
MARGIN
  1
CELLMARGIN_BEGIN
 40
1.5
 40
1.5
 40
1.5
 40
1.5
 40
1.5
 40
1.5
309
CELLMARGIN_END
 94
        6
 95
        1
302
GRIDFORMAT
  1
GRIDFORMAT_BEGIN
 90
        0
 91
        1
 62
     0
 92
       -2
340
12
 93
        0
 40
0.045
309
GRIDFORMAT_END
 95
        2
302
GRIDFORMAT
  1
GRIDFORMAT_BEGIN
 90
        0
 91
        1
 62
     0
 92
       -2
340
12
 93
        0
 40
0.045
309
GRIDFORMAT_END
 95
        4
302
GRIDFORMAT
  1
GRIDFORMAT_BEGIN
 90
        0
 91
        1
 62
     0
 92
       -2
340
12
 93
        0
 40
0.045
309
GRIDFORMAT_END
 95
        8
302
GRIDFORMAT
  1
GRIDFORMAT_BEGIN
 90
        0
 91
        1
 62
     0
 92
       -2
340
12
 93
        0
 40
0.045
309
GRIDFORMAT_END
 95
       16
302
GRIDFORMAT
  1
GRIDFORMAT_BEGIN
 90
        0
 91
        1
 62
     0
 92
       -2
340
12
 93
        0
 40
0.045
309
GRIDFORMAT_END
 95
       32
302
GRIDFORMAT
  1
GRIDFORMAT_BEGIN
 90
        0
 91
        1
 62
     0
 92
       -2
340
12
 93
        0
 40
0.045
309
GRIDFORMAT_END
309
TABLEFORMAT_END
  1
CELLSTYLE_BEGIN
 90
        1
 91
        1
300
_TITLE
309
CELLSTYLE_END
300
CELLSTYLE
  1
TABLEFORMAT_BEGIN
 90
        5
170
     1
 91
        0
 92
        0
 62
   257
 93
        1
300
CONTENTFORMAT
  1
CONTENTFORMAT_BEGIN
 90
        0
 91
        0
 92
      512
 93
        0
300

 40
0.0
140
1.0
 94
        5
 62
     0
340
1F
144
4.5
309
CONTENTFORMAT_END
171
     1
301
MARGIN
  1
CELLMARGIN_BEGIN
 40
1.5
 40
1.5
 40
1.5
 40
1.5
 40
1.5
 40
1.5
309
CELLMARGIN_END
 94
        6
 95
        1
302
GRIDFORMAT
  1
GRIDFORMAT_BEGIN
 90
        0
 91
        1
 62
     0
 92
       -2
340
12
 93
        0
 40
0.045
309
GRIDFORMAT_END
 95
        2
302
GRIDFORMAT
  1
GRIDFORMAT_BEGIN
 90
        0
 91
        1
 62
     0
 92
       -2
340
12
 93
        0
 40
0.045
309
GRIDFORMAT_END
 95
        4
302
GRIDFORMAT
  1
GRIDFORMAT_BEGIN
 90
        0
 91
        1
 62
     0
 92
       -2
340
12
 93
        0
 40
0.045
309
GRIDFORMAT_END
 95
        8
302
GRIDFORMAT
  1
GRIDFORMAT_BEGIN
 90
        0
 91
        1
 62
     0
 92
       -2
340
12
 93
        0
 40
0.045
309
GRIDFORMAT_END
 95
       16
302
GRIDFORMAT
  1
GRIDFORMAT_BEGIN
 90
        0
 91
        1
 62
     0
 92
       -2
340
12
 93
        0
 40
0.045
309
GRIDFORMAT_END
 95
       32
302
GRIDFORMAT
  1
GRIDFORMAT_BEGIN
 90
        0
 91
        1
 62
     0
 92
       -2
340
12
 93
        0
 40
0.045
309
GRIDFORMAT_END
309
TABLEFORMAT_END
  1
CELLSTYLE_BEGIN
 90
        2
 91
        1
300
_HEADER
309
CELLSTYLE_END
300
CELLSTYLE
  1
TABLEFORMAT_BEGIN
 90
        5
170
     1
 91
        0
 92
        0
 62
   257
 93
        1
300
CONTENTFORMAT
  1
CONTENTFORMAT_BEGIN
 90
        0
 91
        0
 92
      512
 93
        0
300

 40
0.0
140
1.0
 94
        2
 62
     0
340
1F
144
4.5
309
CONTENTFORMAT_END
171
     1
301
MARGIN
  1
CELLMARGIN_BEGIN
 40
1.5
 40
1.5
 40
1.5
 40
1.5
 40
1.5
 40
1.5
309
CELLMARGIN_END
 94
        6
 95
        1
302
GRIDFORMAT
  1
GRIDFORMAT_BEGIN
 90
        0
 91
        1
 62
     0
 92
       -2
340
12
 93
        0
 40
0.045
309
GRIDFORMAT_END
 95
        2
302
GRIDFORMAT
  1
GRIDFORMAT_BEGIN
 90
        0
 91
        1
 62
     0
 92
       -2
340
12
 93
        0
 40
0.045
309
GRIDFORMAT_END
 95
        4
302
GRIDFORMAT
  1
GRIDFORMAT_BEGIN
 90
        0
 91
        1
 62
     0
 92
       -2
340
12
 93
        0
 40
0.045
309
GRIDFORMAT_END
 95
        8
302
GRIDFORMAT
  1
GRIDFORMAT_BEGIN
 90
        0
 91
        1
 62
     0
 92
       -2
340
12
 93
        0
 40
0.045
309
GRIDFORMAT_END
 95
       16
302
GRIDFORMAT
  1
GRIDFORMAT_BEGIN
 90
        0
 91
        1
 62
     0
 92
       -2
340
12
 93
        0
 40
0.045
309
GRIDFORMAT_END
 95
       32
302
GRIDFORMAT
  1
GRIDFORMAT_BEGIN
 90
        0
 91
        1
 62
     0
 92
       -2
340
12
 93
        0
 40
0.045
309
GRIDFORMAT_END
309
TABLEFORMAT_END
  1
CELLSTYLE_BEGIN
 90
        3
 91
        2
300
_DATA
309
CELLSTYLE_END
  0
ENDSEC
  0
EOF
